» » »

Cast - I'm So Lonely Tabs

Artists:  A B C D E F G H I J K L M N O P Q R S T U V W X Y Z # 

I'm So Lonely Tabs

(ver. 1) Click to play this song!
Cast
 Rating:
4.2/5 (5 votes)

 I'm So Lonely lessons Tabs too difficult? Try these video lessons and learn fast
 
                 Tuning: Half Step Down (D#,G#,C#,F#,A#,d#) Or (Eb,Ab,Db,Gb,Bb,eb,)
 
 I Looked For The Tab For This Everywhere
 On The Internet And Couldn't Find It So I Decided To

 
Clean
 Intro 

|-----||---------------------------------------------|
|-----||---------------------------------------------|
|-----||---------------------------------------------|
|-----||-5-5-5~-----4-4-5~---------5~---------5~-----|
|-5h7-||--------5h7--------5h7-7-7----5h7-5-5----5h7-|
|-----||---------------------------------------------|
|
|
|
|-----||-3---------------------0----------2----------|
|-----||-3---------------------1----------3----------| These are just the chords
|-----||-0----------4----------0----------2----------| used in the intro and verses
|-----||-0----------4----------2----------0----------| so listen to the song to get
|-----||-2----------2----------3---------------------| the rhythm of it.
|-----||-3-------------------------------------------|






|---------------------------------------------|
|---------------------------------------------|
|---------------------------------------------|
|-5-5-5~-----4-4-5~---------5~---------5~-----|
|--------5h7--------5h7-7-7----5h7-5-5----5h7-|
|---------------------------------------------|
|
|
|
|-3---------------------0----------2----------|
|-3---------------------1----------3----------|
|-0----------4----------0----------2----------|
|-0----------4----------2----------0----------|
|-2----------2----------3---------------------|
|-3-------------------------------------------|






|---------------------------------------------|
|---------------------------------------------|
|---------------------------------------------|
|-5-5-5~-----4-4-5~---------5~---------5~-----|
|--------5h7--------5h7-7-7----5h7-5-5----5h7-|
|---------------------------------------------|
|
|
|
|-3---------------------0----------2----------|
|-3---------------------1----------3----------|
|-0----------4----------0----------2----------|
|-0----------4----------2----------0----------|
|-2----------2----------3---------------------|
|-3-------------------------------------------|






|---------------------------------------------|
|---------------------------------------------|
|---------------------------------------------|
|-5-5-5~-----4-4-5~---------5~---------5~-----|
|--------5h7--------5h7-7-7----5h7-5-5----5h7-|
|---------------------------------------------|
|
|
|
|-3---------------------0----------2----------|
|-3---------------------1----------3----------|
|-0----------4----------0----------2----------|
|-0----------4----------2----------0----------|
|-2----------2----------3---------------------|
|-3-------------------------------------------|

===================================================
===================================================

 Verse
|---------------------------------------------|
|---------------------------------------------|
|---------------------------------------------|
|-5-5-5~-----4-4-5~---------5~---------5~-----|
|--------5h7--------5h7-7-7----5h7-5-5----5h7-|
|---------------------------------------------|
|
|
|
|-3---------------------0----------2----------|
|-3---------------------1----------3----------|
|-0----------4----------0----------2----------|
|-0----------4----------2----------0----------|
|-2----------2----------3---------------------|
|-3-------------------------------------------|






|---------------------------------------------|
|---------------------------------------------|
|---------------------------------------------|
|-5-5-5~-----4-4-5~---------5~---------5~-----|
|--------5h7--------5h7-7-7----5h7-5-5----5h7-|
|---------------------------------------------|
|
|
|
|-3---------------------0----------2----------|
|-3---------------------1----------3----------|
|-0----------4----------0----------2----------|
|-0----------4----------2----------0----------|
|-2----------2----------3---------------------|
|-3-------------------------------------------|






|---------------------------------------------|
|---------------------------------------------|
|---------------------------------------------|
|-5-5-5~-----4-4-5~---------5~---------5~-----|
|--------5h7--------5h7-7-7----5h7-5-5----5h7-|
|---------------------------------------------|
|
|
|
|-3---------------------0----------2----------|
|-3---------------------1----------3----------|
|-0----------4----------0----------2----------|
|-0----------4----------2----------0----------|
|-2----------2----------3---------------------|
|-3-------------------------------------------|






|---------------------------------------------|
|---------------------------------------------|
|---------------------------------------------|
|-5-5-5~-----4-4-5~---------5~---------5~-----|
|--------5h7--------5h7-7-7----5h7-5-5----5h7-|
|---------------------------------------------|
|
|
|
|-3---------------------0----------2----------|
|-3---------------------1----------3----------|
|-0----------4----------0----------2----------|
|-0----------4----------2----------0----------|
|-2----------2----------3---------------------|
|-3-------------------------------------------|






Have A Little Bit Of Reverb On This Part
|-----------------||-----------------|
|-----------------||-----------------|
|-----------------||-----------------|
|-----5---5---5-7-||-----7---7---12//|
|-3-3---3---3-----||-5-5---5---5-----|
|-----------------||-----------------|
|
|
|
|-----------------||-----------------|
|-----------------||-----------------|
|-5~~~~~~~~~~~~~~~||-7~~~~~~~~~~~~~~~|
|-5~~~~~~~~~~~~~~~||-7~~~~~~~~~~~~~~~|
|-3~~~~~~~~~~~~~~~||-5~~~~~~~~~~~~~~~|
|-----------------||-----------------|



|---------------------------------------------|
|---------------------------------------------|
|---------------------------------------------|
|-5-5-5~-----4-4-5~---------5~---------5~-----|
|--------5h7--------5h7-7-7----5h7-5-5----5h7-|
|---------------------------------------------|
|
|
|
|-3---------------------0----------2----------|
|-3---------------------1----------3----------|
|-0----------4----------0----------2----------|
|-0----------4----------2----------0----------|
|-2----------2----------3---------------------|
|-3-------------------------------------------|






|---------------------------------------------|
|---------------------------------------------|
|---------------------------------------------|
|-5-5-5~-----4-4-5~---------5~---------5~-----|
|--------5h7--------5h7-7-7----5h7-5-5----5h7-|
|---------------------------------------------|
|
|
|
|-3---------------------0----------2----------|
|-3---------------------1----------3----------|
|-0----------4----------0----------2----------|
|-0----------4----------2----------0----------|
|-2----------2----------3---------------------|
|-3-------------------------------------------|






|---------------------------------------------|
|---------------------------------------------|
|---------------------------------------------|
|-5-5-5~-----4-4-5~---------5~---------5~-----|
|--------5h7--------5h7-7-7----5h7-5-5----5h7-|
|---------------------------------------------|
|
|
|
|-3---------------------0----------2----------|
|-3---------------------1----------3----------|
|-0----------4----------0----------2----------|
|-0----------4----------2----------0----------|
|-2----------2----------3---------------------|
|-3-------------------------------------------|






|---------------------------------------------|
|---------------------------------------------|
|---------------------------------------------|
|-5-5-5~-----4-4-5~---------5~---------5~-----|
|--------5h7--------5h7-7-7----5h7-5-5----5h7-|
|---------------------------------------------|
|
|
|
|-3---------------------0----------2----------|
|-3---------------------1----------3----------|
|-0----------4----------0----------2----------|
|-0----------4----------2----------0----------|
|-2----------2----------3---------------------|
|-3-------------------------------------------|






|-----------------|
|-----------------|
|-----------------|
|-----5---5---5-7-|
|-3-3---3---3-----|
|-----------------|
|
|
|
|-----------------|
|-----------------|
|-5~~~~~~~~~~~~~~~|
|-5~~~~~~~~~~~~~~~|
|-3~~~~~~~~~~~~~~~|
|-----------------|


==================================================
==================================================


Pre-chorus
|-----------------------------------------|
|-----------------------------------------|
|-7~~~-9~~~----------------4~~~-5~~~-7~~~-|
|-7~~~-9~~~-4~~~-5~~~-7~~~-4~~~-5~~~-7~~~-|
|-5~~~-7~~~-4~~~-5~~~-7~~~-2~~~-3~~~-5~~~-|
|------0~~~-2~~~-3~~~-5~~~----------------|
|
|
|
|-----------------------------------------|
|-----------------------------------------|
|-7~~~-9~~~----------------4~~~-5~~~-7~~~-|
|-7~~~-9~~~-4~~~-5~~~-7~~~-4~~~-5~~~-7~~~-|
|-5~~~-7~~~-4~~~-5~~~-7~~~-2~~~-3~~~-5~~~-|
|------0~~~-2~~~-3~~~-5~~~----------------|


==================================================
==================================================


Chorus
|-3-----0-----0-----3-----3-----0-----3-----0-------|
|-3-----0-----1-----3-----3-----0-----3-----1-------| Again You Will Have To Listen
|-0-----0-----2-----0-----0-----0-----0---4-2-------| To The Song To Get The Rhythm
|-0-----2-----2-----0-----0-----2-----0-2-4-2-------| Of The Guitar.
|-2-----2-----0-----2-----2-----2-----2-2-2-0-------|
|-3-----0-----------3-----3-----0-----3-0-----------|
|
|
|
|-3-----0-----0-----3-----3-----0-----3-----0-------|
|-3-----0-----1-----3-----3-----0-----3-----1-------|
|-0-----0-----2-----0-----0-----0-----0---4-2-------|
|-0-----2-----2-----0-----0-----2-----0-2-4-2-------|
|-2-----2-----0-----2-----2-----2-----2-2-2-0-------|
|-3-----0-----------3-----3-----0-----3-0-----------|






|-3-----0-----0-----3-----3-----0-----3-----0-------|
|-3-----0-----1-----3-----3-----0-----3-----1-------|
|-0-----0-----2-----0-----0-----0-----0---4-2-------|
|-0-----2-----2-----0-----0-----2-----0-2-4-2-------|
|-2-----2-----0-----2-----2-----2-----2-2-2-0---5h7-|
|-3-----0-----------3-----3-----0-----3-0-----------|
|
|
|
|-3-----0-----0-----3-----3-----0-----3-----0-------|
|-3-----0-----1-----3-----3-----0-----3-----1-------|
|-0-----0-----2-----0-----0-----0-----0---4-2-------|
|-0-----2-----2-----0-----0-----2-----0-2-4-2-------|
|-2-----2-----0-----2-----2-----2-----2-2-2-0-------|
|-3-----0-----------3-----3-----0-----3-0-----------|



==================================================
==================================================

Chorus Part 2
|---------------------------------------------|
|---------------------------------------------|
|---------------------------------------------|
|-5-5-5~-----4-4-5~---------5~---------5~-----|
|--------5h7--------5h7-7-7----5h7-5-5----5h7-|
|---------------------------------------------|
|
|
|
|-3---------------------0----------2----------|
|-3---------------------1----------3----------|
|-0----------4----------0----------2----------|
|-0----------4----------2----------0----------|
|-2----------2----------3---------------------|
|-3-------------------------------------------|



==================================================
==================================================


Verse 2
|---------------------------------------------|
|---------------------------------------------|
|---------------------------------------------|
|-5-5-5~-----4-4-5~---------5~---------5~-----|
|--------5h7--------5h7-7-7----5h7-5-5----5h7-|
|---------------------------------------------|
|
|
|
|-3---------------------0----------2----------|
|-3---------------------1----------3----------|
|-0----------4----------0----------2----------|
|-0----------4----------2----------0----------|
|-2----------2----------3---------------------|
|-3-------------------------------------------|





|---------------------------------------------|
|---------------------------------------------|
|---------------------------------------------|
|-5-5-5~-----4-4-5~---------5~---------5~-----|
|--------5h7--------5h7-7-7----5h7-5-5----5h7-|
|---------------------------------------------|
|
|
|
|-3---------------------0----------2----------|
|-3---------------------1----------3----------|
|-0----------4----------0----------2----------|
|-0----------4----------2----------0----------|
|-2----------2----------3---------------------|
|-3-------------------------------------------|





|---------------------------------------------|
|---------------------------------------------|
|---------------------------------------------|
|-5-5-5~-----4-4-5~---------5~---------5~-----|
|--------5h7--------5h7-7-7----5h7-5-5----5h7-|
|---------------------------------------------|
|
|
|
|-3---------------------0----------2----------|
|-3---------------------1----------3----------|
|-0----------4----------0----------2----------|
|-0----------4----------2----------0----------|
|-2----------2----------3---------------------|
|-3-------------------------------------------|





|---------------------------------------------|
|---------------------------------------------|
|---------------------------------------------|
|-5-5-5~-----4-4-5~---------5~---------5~-----|
|--------5h7--------5h7-7-7----5h7-5-5----5h7-|
|---------------------------------------------|
|
|
|
|-3---------------------0----------2----------|
|-3---------------------1----------3----------|
|-0----------4----------0----------2----------|
|-0----------4----------2----------0----------|
|-2----------2----------3---------------------|
|-3-------------------------------------------|





|---------------------------------------------|
|---------------------------------------------|
|---------------------------------------------|
|-5-5-5~-----4-4-5~---------5~---------5~-----|
|--------5h7--------5h7-7-7----5h7-5-5----5h7-|
|---------------------------------------------|
|
|
|
|-3---------------------0----------2----------|
|-3---------------------1----------3----------|
|-0----------4----------0----------2----------|
|-0----------4----------2----------0----------|
|-2----------2----------3---------------------|
|-3-------------------------------------------|





|-----------------|
|-----------------|
|-----------------|
|-----5---5---5-7-|
|-3-3---3---3-----|
|-----------------|
|
|
|
|-----------------|
|-----------------|
|-5~~~~~~~~~~~~~~~|
|-5~~~~~~~~~~~~~~~|
|-3~~~~~~~~~~~~~~~|
|-----------------|




=====================================================
=====================================================


Pre-chorus
|-----------------------------------------|
|-----------------------------------------|
|-7~~~-9~~~----------------4~~~-5~~~-7~~~-|
|-7~~~-9~~~-4~~~-5~~~-7~~~-4~~~-5~~~-7~~~-|
|-5~~~-7~~~-4~~~-5~~~-7~~~-2~~~-3~~~-5~~~-|
|------0~~~-2~~~-3~~~-5~~~----------------|
|
|
|
|-----------------------------------------|
|-----------------------------------------|
|-7~~~-9~~~----------------4~~~-5~~~-7~~~-|
|-7~~~-9~~~-4~~~-5~~~-7~~~-4~~~-5~~~-7~~~-|
|-5~~~-7~~~-4~~~-5~~~-7~~~-2~~~-3~~~-5~~~-|
|------0~~~-2~~~-3~~~-5~~~----------------|


==================================================
==================================================


Chorus
|-3-----0-----0-----3-----3-----0-----3-----0-------|
|-3-----0-----1-----3-----3-----0-----3-----1-------|
|-0-----0-----2-----0-----0-----0-----0---4-2-------|
|-0-----2-----2-----0-----0-----2-----0-2-4-2-------|
|-2-----2-----0-----2-----2-----2-----2-2-2-0-------|
|-3-----0-----------3-----3-----0-----3-0-----------|
|
|
|
|-3-----0-----0-----3-----3-----0-----3-----0-------|
|-3-----0-----1-----3-----3-----0-----3-----1-------|
|-0-----0-----2-----0-----0-----0-----0---4-2-------|
|-0-----2-----2-----0-----0-----2-----0-2-4-2-------|
|-2-----2-----0-----2-----2-----2-----2-2-2-0-------|
|-3-----0-----------3-----3-----0-----3-0-----------|





|-3-----0-----0-----3-----3-----0-----3-----0-------||-3-----0-------|
|-3-----0-----1-----3-----3-----0-----3-----1-------||-3-----1-------|
|-0-----0-----2-----0-----0-----0-----0---4-2-------||-0---4-2-------|
|-0-----2-----2-----0-----0-----2-----0-2-4-2-------||-0-2-4-2-------|
|-2-----2-----0-----2-----2-----2-----2-2-2-0-------||-2-2-2-0-------|
|-3-----0-----------3-----3-----0-----3-0-----------||-3-0-----------|
|
|
|
|-3-----0-----0-----3-----3-----0-----3-----0-------||-3-----0-------|
|-3-----0-----1-----3-----3-----0-----3-----1-------||-3-----1-------|
|-0-----0-----2-----0-----0-----0-----0---4-2-------||-0---4-2-------|
|-0-----2-----2-----0-----0-----2-----0-2-4-2-------||-0-2-4-2-------|
|-2-----2-----0-----2-----2-----2-----2-2-2-0-------||-2-2-2-0-------|
|-3-----0-----------3-----3-----0-----3-0-----------||-3-0-----------|


==========================================================================
==========================================================================



 Chorus Part 2
|---------------------------------------------|
|---------------------------------------------|
|---------------------------------------------|
|-5-5-5~-----4-4-5~---------5~---------5~-----|
|--------5h7--------5h7-7-7----5h7-5-5----5h7-|
|---------------------------------------------|
|
|
|
|-3---------------------0----------2----------|
|-3---------------------1----------3----------|
|-0----------4----------0----------2----------|
|-0----------4----------2----------0----------|
|-2----------2----------3---------------------|
|-3-------------------------------------------|


===================================================
===================================================


Outro
|---------------------------------------------|
|---------------------------------------------|
|---------------------------------------------|
|-5-5-5~-----4-4-5~---------5~---------5~-----|
|--------5h7--------5h7-7-7----5h7-5-5----5h7-|
|---------------------------------------------|
|
|
|
|-3---------------------0----------2----------|
|-3---------------------1----------3----------|
|-0----------4----------0----------2----------|
|-0----------4----------2----------0----------|
|-2----------2----------3---------------------|
|-3-------------------------------------------|




 

|---------------------------------------------|
|---------------------------------------------|
|---------------------------------------------|
|-5-5-5~-----4-4-5~---------5~---------5~-----|
|--------5h7--------5h7-7-7----5h7-5-5----5h7-|
|---------------------------------------------|
|
|
|
|-3---------------------0----------2----------|
|-3---------------------1----------3----------|
|-0----------4----------0----------2----------|
|-0----------4----------2----------0----------|
|-2----------2----------3---------------------|
|-3-------------------------------------------|





|---------------------------------------------|
|---------------------------------------------|
|---------------------------------------------|
|-5-5-5~-----4-4-5~---------5~---------5~-----|
|--------5h7--------5h7-7-7----5h7-5-5----5h7-|
|---------------------------------------------|
|
|
|
|-3---------------------0----------2----------|
|-3---------------------1----------3----------|
|-0----------4----------0----------2----------|
|-0----------4----------2----------0----------|
|-2----------2----------3---------------------|
|-3-------------------------------------------|





|---------------------------------------------|
|---------------------------------------------|
|---------------------------------------------|
|-5-5-5~-----4-4-5~---------5~---------5~-----|
|--------5h7--------5h7-7-7----5h7-5-5----5h7-|
|---------------------------------------------|
|
|
|
|-3---------------------0----------2----------|
|-3---------------------1----------3----------|
|-0----------4----------0----------2----------|
|-0----------4----------2----------0----------|
|-2----------2----------3---------------------|
|-3-------------------------------------------|





|---------------------------------------------|
|---------------------------------------------|
|---------------------------------------------|
|-5-5-5~-----4-4-5~---------5~---------5~-----|
|--------5h7--------5h7-7-7----5h7-5-5----5h7-|
|---------------------------------------------|
|
|
|
|-3---------------------0----------2----------|
|-3---------------------1----------3----------|
|-0----------4----------0----------2----------|
|-0----------4----------2----------0----------|
|-2----------2----------3---------------------|
|-3-------------------------------------------|





|---------------------------------------------|
|---------------------------------------------|
|---------------------------------------------|
|-5-5-5~-----4-4-5~---------5~---------5~-----|
|--------5h7--------5h7-7-7----5h7-5-5----5h7-|
|---------------------------------------------|
|
|
|
|-3---------------------0----------2----------|
|-3---------------------1----------3----------|
|-0----------4----------0----------2----------|
|-0----------4----------2----------0----------|
|-2----------2----------3---------------------|
|-3-------------------------------------------|





|---------------------------------------------|
|---------------------------------------------|
|---------------------------------------------|
|-5-5-5~-----4-4-5~---------5~---------5~-----|
|--------5h7--------5h7-7-7----5h7-5-5----5h7-|
|---------------------------------------------|
|
|
|
|-3---------------------0----------2----------|
|-3---------------------1----------3----------|
|-0----------4----------0----------2----------|
|-0----------4----------2----------0----------|
|-2----------2----------3---------------------|
|-3-------------------------------------------|





|---------------------------------------------|
|---------------------------------------------|
|---------------------------------------------|
|-5-5-5~-----4-4-5~---------5~---------5~-----|
|--------5h7--------5h7-7-7----5h7-5-5----5h7-|
|---------------------------------------------|
|
|
|
|-3---------------------0----------2----------|
|-3---------------------1----------3----------|
|-0----------4----------0----------2----------|
|-0----------4----------2----------0----------|
|-2----------2----------3---------------------|
|-3-------------------------------------------|





|---------------------------------------------|
|---------------------------------------------|
|---------------------------------------------|
|---------------------------------------------|
|---------------------------------------------|
|---------------------------------------------|
|
|
|
|-3---------------------0----------2----------|
|-3---------------------1----------3----------|
|-0----------4----------0----------2----------|
|-0----------4----------2----------0----------|
|-2----------2----------3---------------------|
|-3-------------------------------------------|





|---------------------------------------------|
|---------------------------------------------|
|---------------------------------------------|
|---------------------------------------------|
|---------------------------------------------|
|---------------------------------------------|
|
|
|
|-3---------------------0----------2----------|
|-3---------------------1----------3----------|
|-0----------4----------0----------2----------|
|-0----------4----------2----------0----------|
|-2----------2----------3---------------------|
|-3-------------------------------------------|




Ending
|-3------|
|-3------|
|-0------|
|-0------|
|-2------|
|-3------|
|
|
|
|-3------|
|-3------|
|-0------|
|-0------|
|-2------|
|-3------|



Thats The Whole Song

Please Rate And Comment On This Tab
            
Submit corrections


        I'm So Lonely lessons Hard to play? Try these video lessons and learn fast I'm So Lonely lessons
        
↑ Back to top | Tablatures and chords for acoustic guitar and electric guitar, ukulele, drums are parodies/interpretations of the original songs. You may use it for private study, scholarship, research or language learning purposes only