» » »

Cassidy Eva - Songbird Tabs

Artists:  A B C D E F G H I J K L M N O P Q R S T U V W X Y Z # 

Songbird Tabs

(ver. 1) Click to play this song!
Cassidy Eva
 Rating:
4/5 (5 votes)

 Songbird lessons Tabs too difficult? Try these video lessons and learn fast
 
                Songbird 
By Eva Cassidy

This sounds pretty accurate to me, even though it was a little hard
to hear all the guitar part with all the keyboards and stuff.  See 
what you think.

Intro

---------5s7--7--5------------3--3----------5s7--7--5------------3-3---
--0h3----6s8--8--7--0--3---0--3--1---0h3----6s8--8--7--0--3---0--3-3---
-------------------------0----------------------------------0----------
---3-------------------3------3-------3-------------------3------3-3---


-3-------5s7--7--5----3-----2---
-1--0h3--6s8--8--7----5--0--3---
--------------------------------
--------------------------------
--------------------------------
-3---3--------------------------
                            For

Verse   C                           G
-------1----1-------1------1-----------0-----0h1------0----------
-----0------------0------0-----------0--------0-------0----0-----
---2-----2--0-0h2-----0-------0----0------0-------0------0---0---
-3-------------3-------------------------------------------------
---------------------------------3------------3-------3----------
you               there'll be no crying



               C                                     G
--------------------3------------------3-------------------------------
-1-----3------------1-----1------------1---1----------0---0h1----------
-----------------0----0h2---2p0-----0----0---0------0-0----0-------0---
----0-----0----2------------------2---------------0-----0--------0---0-
-0-----2-----3------3-----------3------3-------------------------------
------------------------------------------------3--------------3-------
       For   you                                the sun will be shining



                 Am              Em            C            
-------------------0----------------0------------3------------------3--
-1-----3---------1---1---1--------0-0---0--1-----1-----1------------1--
---------------2-------2--------0-------0------0---0h2---2p0-----0-----
----0--------2----------------2-------2------2-----------------2-------
-0-----2---0-------------------------------3-----3-----------3------3--
----------------------------0------------------------------------------
 Cause I feel that when I'm with you, it's all right




               G                          Chorus    D
------------------3-----------------3---------------2------------------
-----1------------0---0h1----0------0-------------3---3----------------
-0h2---2p0------0------0-----0----0-------------2-------2---2----------
--------------0------0----0-----0-------0-----0-----------0------------
------------------------------------------2-3--------------------------
------------3-----3-----------------3----------------------------------
         I  know it's right           and the songbirds       keep


     C                   Em                 
-------0----------------------0----------------7-----5-----2--------
-------1------1-------------0---0---0----------8--0--7--0--3----------
-----0------0---0---------0-------0--------------------------0-------
---2------0-------------2-----------------2---------------------------
-3---------------------------------------------------------------
---------------------0------------------0-----------------------
 singing like they know the score                       and I 


     C                   D             C           G
-3-----3-----------------------------------------------------------
-------1------1-------------3---------------------0-----0h1---0----
-----0----------0---------2---2s0------0--------0---0----0----0----
---2--------2------2---0-------------2---2----0-------0-----0------
-3---------------------------------3-------------------------------
--------------------------------------------3------------3---------
love you I love you I love you  like never before


After the first verse/chorus, this solo can be played by a 
second guitar while the first guitar plays the verse/chorus a
gain without singing.  

--------------------------------------------------------------
-------------------------1--0h1p0---0-------------------------
-------0-0h2-0-0-----0------------2---2h4p2-0-----------------
-0-0h2-----------------2--------------------------------------
--------------------------------------------------------------
--------------------------------------------------------------


--------------------------------------------------------------
-------------------------1--0--1s3-3--1h3p1-0-----------------
-------0-0h2-0-0-----0--------------------------2h4p2-0-------
-0-0h2-----------------2--------------------------------------
--------------------------------------------------------------
--------------------------------------------------------------


-7-7-7h8-7--5s3-3s5--3h5p3-2--0h2-2s3-2-0------------------------------
------------------------------------------3---1-3-3s5--5-5-5s7--7-7-7s8


-----------------4s5--3-2-----5s7--5s3-3----------------------
-8--7--5----4s5-----------------------------------------------
------------4s5-----------------------------------------------
--------------------------------------------------------------
--------------------------------------------------------------
--------------------------------------------------------------

Now comes the second verse/chorus, and it's played the same (basically) 
except for the end after "like never before . . . " when this comes in:



       G                    C                     G
--------------------------0------------------------------------------
--------------1-----3------------1-------1---------------0h1---------
---------0---------------------0-------0-------------0----0-----0----
-------0---0-----0-----0-----2-----0h2-----2p0-----0---0------0---0--
--------------0-----2-----3------------------------------------------
-----3-------------------------------------------3--------3----------
before                              Like never before


  C                
------------------------------------5s7----
-1-----1-------------------0-3-5-3--6s8----
-0---0-----0---0-------0-2-----------------
---2-----0---2-------0---------------------
-3-----------------------------------------
-------------------3-----------------------
 Like never      before

That slide at the end is done differently on the recording because 
I hear a lot more sliding than when I do it, but the way I tabbed it 
sounds the same to me.
            
Submit corrections


        Songbird lessons Hard to play? Try these video lessons and learn fast Songbird lessons
        
↑ Back to top | Tablatures and chords for acoustic guitar and electric guitar, ukulele, drums are parodies/interpretations of the original songs. You may use it for private study, scholarship, research or language learning purposes only