Home » C » Cas Haley »

Cas Haley - Im Free Tabs

Artists:  A B C D E F G H I J K L M N O P Q R S T U V W X Y Z # 

Im Free Tabs

(ver. 1) Click to play this song!
Cas Haley
----------------------------------------------------------------------------
                             I’m Free – Cas Haley
----------------------------------------------------------------------------


Tuning: Standard
/  =  slide up
~  = vibrato
\  = slide down
X  = muted
(#)=  optional note


As played in KXT In-studio Performance (search online for video).  Lyrics differ in 
order, and slight chord variations exist in BING lounge video.


e|-------------------------------------|
B|-----5----4/5--5--5------------------|
G|-----6----3/4--4--4----5-5-5---------|Repeat throughout Intro
D|-----5----4/5--5--4----4-4-4---------|and Verses
A|-----------------------5-5-5---------|
E|-5-5---------------------------------|
   (Strum accordingly)


All-right!
Wake up in the car with my mom and dad
Searching again for the home I never had
Always runnin round when things got bad
A roamin gypsy life is what I had

Is what I had
Yeah is what I had

It all started when I’s only four
Taken baths in the reservoir
Poor hippie parents done made their choice
They sing their song with a different voice

A different voice
Yeah a different voice

e|---0--------|
B|---5--------|
G|---6--------|  End Verse on this Chord
D|---5--------|
A|---x--------|
E|---5 -------|


Chorus/Bridge/Change thing

 I don’t ever know
e|---------------5-------------------------|
B|------5 ----5---------5~-5---------------|
G|--5/6---5/6-----------4~-4--Or-5---------|
D|----------------------5~-5-----4---------|
A|-------------------------------5---------|
E|-----------------------------------------|
                        (Strum with vibrato)

  Where we gonna go
e|---------------------------------------|
B|------5 ----5--------------------------|
G|--5/6----5/6---------------------------|
D|----------------7----------------------|
A|---------------------------------------|
E|---------------------------------------|

  But I know somethin
e|-----------------------------------------|
B|-----------------------------------------|
G|------------------------8~--\-7~---------|
D|------------------7-----x(7)--6~---------|
A|------------------x-----8~--\-7~---------|
E|------------------7----------------------|


 I’m Free
e|----------------------------------------|
B|-----------5----4/5--5--5---------------|
G|-----------6----3/4--4--4----5-5-5------|
D|-----------5----4/5--5--4----4-4-4------|
A|-----------------------------5-5-5------|
E|--------5-------------------------------|
   (Strum accordingly)

Verse
On a high mountain road its spose to go to Price (? Not sure)
Three feet of snow no warming device
Truck breaks down they say what da we do
We usually just ta manage to get-get just to get us through

Yeah  to get us through
Oh to get us through to yall
Yeah to get us through


Repeat Chorus Change Thing
Chorus/Bridge/Change thing

  I don’t ever know
e|---------------5-------------------------|
B|------5 ----5---------5~-5---------------|
G|--5/6---5/6-----------4~-4--Or-5---------|
D|----------------------5~-5-----4---------|
A|-------------------------------5---------|
E|-----------------------------------------|
                        (Strum with vibrato)

 Where we gonna go
e|---------------------------------------|
B|------5 ----5--------------------------|
G|--5/6----5/6---------------------------|
D|----------------7----------------------|
A|---------------------------------------|
E|---------------------------------------|

 But I know somethin
e|-----------------------------------------|
B|-----------------------------------------|
G|------------------------8~--\-7~---------|
D|------------------7-----x(7)--6~---------|
A|------------------x-----8~--\-7~---------|
E|------------------7----------------------|


Bridge (as played on KXT In-Studio Performance [search online for video])

  I’m Free
e|------------------------------|
B|------------------------------|
G|-------------8-/-7 7 7 7------|
D|---7 7 7 7---x---6 6 6 6------|
A|---x-x x x---8-/-7 7 7 7------|
E|---7-7-7 7--------------------|
      (Strum to rhythm)


  “I’m Free…   yeah I’m Free”
e|-------------------------|
B|-------------------------|
G|-------------7 7 7 ------|  Repeat
D|---7 7 7 7---6 6 6-------|
A|---x-x x x---7 7 7 ------|
E|---7-7-7 7---------------|
      (Strum to rhythm)

I’m Free
Yeah I’m Free
Oh I’m free
Yeah I’m free’a now
Yes I’m Free’a now
(etc.)

REPEAT SONG FROM 2nd Verse (“It all started when I’s only four…”


Breakdown/Ending
e|---------------------6/5-------|
B|---------------------6/5-------|
G|----------5-5-6-6-7--7/6-------|
D|----------4-4-5-5-6--6/6-------|
A|------4-4-5-5-6-6-7--8/7-------|
E|--5-5----------------6/5-------|
            
Submit corrections

↑ Back to top | Tablatures and chords for acoustic guitar and electric guitar, ukulele, drums are parodies/interpretations of the original songs. You may use it for private study, scholarship, research or language learning purposes only