Home » C » Cascades »

Cascades - Rhythm Of The Rain Bass

Artists:  A B C D E F G H I J K L M N O P Q R S T U V W X Y Z # 

Rhythm Of The Rain Bass

(ver. 1) Click to play this song!
Cascades
Rhythm Of The Rain
The Cascades
Written by John Claude Gummoe; released as a single with "Let Me Be" as the 
B-side.

Intro:
G|------- ------- ------- -------|------- ------- ------- -------|
D|-------------------------------|-------------------------------|
A|7-----------7------------------|4-----------------------4------|
E|----------------7-------7------|----------------4--------------|



G|------- ------- ------- -------|------- ------- ------- -------|
D|-------------------------------|-------------------------------|
A|7-----------------------7------|----------------9-----------6--|
E|----------------7--------------|7-----------------------7------|


Verse:
G|------- ------- ------- -------|------- ------- ------- -------|
D|-------------------------------|7-----------------------7------|
A|7-----------------------7------|----------------7--------------|
E|----------------7--------------|-------------------------------|
  Listen  to the  rhythm  of the  fal  -  ling rain,
  aaaaaaaaaaaaaaaaaaaaaaaaaaaaaah

G|------- ------- ------- -------|------- ------- ------- -------|
D|-------------------------------|-------------------------------|
A|7-----------------------7------|----------------9-----------6--|
E|----------------7--------------|7-----------------------7------|
  telling me just what a fool I've been,                      I
  ooh     ta  -   ta- ta  -   ta

G|------- ------- ------- -------|------- ------- ------- -------|
D|-------------------------------|7-----------------------7------|
A|7------------------------------|----------------7--------------|
E|----------------7-------7------|-------------------------------|
  wish that it would go and let me cry    in  vain,           and
  aaaaaaaaaaaaaaaaaaaaaaaaaaaaaah

G|------- ------- ------- -------|------- ------- ------- -------|
D|-------------------------------|-------------------------------|
A|7------------------------------|7------------------------------|
E|----------------7-------7------|----------------7-------7------|
  let me  be  a - lone    a - gain.                           The
  ooh     ta  -   ta- ta  -   ta
Verse:
G|------- ------- ------- -------|------- ------- ------- -------|
D|-------------------------------|7-----------------------7------|
A|7------------------------------|----------------7--------------|
E|----------------7-------7------|-------------------------------|
  on- ly  girl I  care about  has gone    a - way,
  aaaaaaaaaaaaaaaaaaaaaaaaaaaaaah

G|------- ------- ------- -------|------- ------- ------- -------|
D|-------------------------------|-------------------------------|
A|7-----------------------7------|----------------9-----------6--|
E|----------------7--------------|7-----------------------7------|
  lookin' for a   brand new   start,                          But
  ooh     ta  -   ta- ta  -   ta

G|------- ------- ------- -------|------- ------- ------- -------|
D|-------------------------------|7-----------------------7------|
A|7-----------------------7------|----------------7--------------|
E|----------------7--------------|-------------------------------|
  little girl, she knew that when she left that day,          a-
  aaaaaaaaaaaaaaaaaaaaaaaaaaaaaah

G|------- ------- ------- -------|------- ------- ------- -------|
D|-------------------------------|-------------------------------|
A|7------------------------------|7---------------7-------7------|
E|----------------7-------7------|-------------------------------|
  long with her she took my   heart.
  ooh     ta  -   ta- ta  -   ta
Bridge:
G|------- ------- ------- -------|------- ------- ------- -------|
D|7-----------------------7------|6-----------------------6------|
A|----------------7--------------|----------------6--------------|
E|-------------------------------|-------------------------------|
  Rain,   please, tell me now,    that seem   fair            for
                              does

G|------- ------- ------- -------|------- ------- ------- -------|
D|7-----------------------7------|-------------------------------|
A|----------------7--------------|7-----------------------7------|
E|-------------------------------|----------------7--------------|
  her to steal my heart away when she don't   care?           I


G|------- ------- ------- -------|------- ------- ------- -------|
D|-------------------------------|4------------------------------|
A|4-----------------------4------|----------------------------6--|
E|----------------4--------------|----------------7-------7------|
  can't   love ano - ther when my heart's somewhere   far a-
  ooooooooooooooooooooooooooooooooooooooooooooooooooooooooooooooo

G|------- ------- ------- -------|------- ------- ------- -------|
D|-------------------------------|-------------------------------|
A|7-----------------------7------|-------------------------------|
E|----------------7--------------|7---------------7-------7------|
  way.                                                        The
  ooooooooooooooooooooooooooooooh
Verse:
G|------- ------- ------- -------|------- ------- ------- -------|
D|-------------------------------|7-----------------------7------|
A|7-----------------------7------|----------------7--------------|
E|----------------7--------------|-------------------------------|
  on- ly  girl I  care about  has gone    a - way,
  aaaaaaaaaaaaaaaaaaaaaaaaaaaaaah

G|------- ------- ------- -------|------- ------- ------- -------|
D|-------------------------------|-------------------------------|
A|7-----------------------7------|----------------9-----------6--|
E|----------------7--------------|7-----------------------7------|
  lookin' for a   brand new   start,                          But
  ooh     ta  -   ta- ta  -   ta

G|------- ------- ------- -------|------- ------- ------- -------|
D|-------------------------------|7-----------------------7------|
A|7-----------------------7------|----------------7--------------|
E|----------------7--------------|-------------------------------|
  little girl, she knew that when she left that day,          a-
  aaaaaaaaaaaaaaaaaaaaaaaaaaaaaah

G|------- ------- ------- -------|------- ------- ------- -------|
D|-------------------------------|-------------------------------|
A|7------------------------------|7---------------------------6--|
E|----------------7-------7------|----------------7-------7------|
  long with her she took my   heart.
  ooh     ta  -   ta- ta  -   ta
Verse (solo):
G|------- ------- ------- -------|------- ------- ------- -------|
D|-------------------------------|7-----------------------7------|
A|7-----------------------7------|----------------7--------------|
E|----------------7--------------|-------------------------------|



G|------- ------- ------- -------|------- ------- ------- -------|
D|-------------------------------|-------------------------------|
A|7-----------------------7------|----------------9-----------6--|
E|----------------7--------------|7-----------------------7------|



G|------- ------- ------- -------|------- ------- ------- -------|
D|-------------------------------|7-----------------------7------|
A|7-----------------------7------|----------------7--------------|
E|----------------7--------------|-------------------------------|



G|------- ------- ------- -------|------- ------- ------- -------|
D|-------------------------------|-------------------------------|
A|7------------------------------|7---------------7-------7------|
E|----------------7-------7------|-------------------------------|


Bridge:
G|------- ------- ------- -------|------- ------- ------- -------|
D|7-----------------------7------|6-----------------------6------|
A|----------------7--------------|----------------6--------------|
E|-------------------------------|-------------------------------|
  Rain,   won't   tell her that I love her    so,
              you

G|------- ------- ------- -------|------- ------- ------- -------|
D|7-----------------------7------|-------------------------------|
A|----------------7--------------|7-----------------------7------|
E|-------------------------------|----------------7--------------|
  please, ask the Sun to  set her hard and    low,


G|------- ------- ------- -------|------- ------- ------- -------|
D|-------------------------------|4------------------------------|
A|4-----------------------4------|----------------------------6--|
E|----------------4--------------|----------------7-------7------|
  Rain    in  her heart, and let the love we  knew    start   to
  ooooooooooooooooooooooooooooooooooooooooooooooooooooooooooooooo

G|------- ------- ------- -------|------- ------- ------- -------|
D|-------------------------------|-------------------------------|
A|7-----------------------7------|----------------------------6--|
E|----------------7--------------|7---------------7-------7------|
  grow.
  ooooooooooooooooooooooooooooooh
Verse:
G|------- ------- ------- -------|------- ------- ------- -------|
D|-------------------------------|7-----------------------7------|
A|7-----------------------7------|----------------7--------------|
E|----------------7--------------|-------------------------------|
  Listen  to the  rhythm  of the  fal  -  ling rain,
  aaaaaaaaaaaaaaaaaaaaaaaaaaaaaah

G|------- ------- ------- -------|------- ------- ------- -------|
D|-------------------------------|-------------------------------|
A|7-----------------------7------|----------------9-----------6--|
E|----------------7--------------|7-----------------------7------|
  telling me just what a fool I've been,                      I
  ooh     ta  -   ta- ta  -   ta

G|------- ------- ------- -------|------- ------- ------- -------|
D|-------------------------------|7-----------------------7------|
A|7-----------------------7------|----------------7--------------|
E|----------------7--------------|-------------------------------|
  wish that it would go and let me cry    in  vain,           and
  aaaaaaaaaaaaaaaaaaaaaaaaaaaaaah

G|------- ------- ------- -------|------- ------- ------- -------|
D|-------------------------------|-------------------------------|
A|7------------------------------|7---------------------------6--|
E|----------------7-------7------|----------------7-------7------|
  let me  be  a - lone    a - gain.
  ooh     ta  -   ta- ta  -   ta
Outro:
G|------- ------- ------- -------|------- ------- ------- -------|
D|-------------------------------|-------------------------------|
A|7-----------------------7------|4-----------------------4------|
E|----------------7--------------|----------------4--------------|
          Oh,     listen  to  the fal  -  ling rain,
  aaaaaaaaaaaaaaaaaaaaaaaaaaaaaah

G|------- ------- ------- -------|------- ------- ------- -------|
D|-------------------------------|-------------------------------|
A|7-----------------------7------|4-----------------------4---6--|
E|----------------7--------------|----------------4--------------|
          pitter, patter, pitter, patter,     o   -   o - o - oh,
  aaaaaaaaaaaaaaaaaaaaaaaaaaaaaah

G|------- ------- ------- -------|------- ------- ------- -------|
D|-------------------------------|-------------------------------|
A|7-----------------------7------|4---------------4-------4------|
E|----------------7--------------|-------------------------------|
  Listen,     lis  -  ten to  the falling     rain,
  aaaaaaaaaaaaaaaaaaaaaaaaaaaaaah

G|------- ------- ------- -------|------- ------- ------- -------|
D|-------------------------------|-------------------------------|
A|7------------------------------|4---------------4-------4------|
E|----------------7-------7------|-------------------------------|
          pitter, patter, pitter, patter,     o   -   o - o - oh,
  aaaaaaaaaaaaaaaaaaaaaaaaaaaaaah

G|------- ------- ------- -------|------- ------- ------- -------|
D|-------------------------------|-------------------------------|
A|7---------------7-------7------|4---------------4-------4------|
E|-------------------------------|-------------------------------|
  Listen,     lis  -  ten to  the falling     rain,
  aaaaaaaaaaaaaaaaaaaaaaaaaaaaaah
Fade out...

Please e-mail me for any corrections, or write a comment.
            
Submit corrections

↑ Back to top | Tablatures and chords for acoustic guitar and electric guitar, ukulele, drums are parodies/interpretations of the original songs. You may use it for private study, scholarship, research or language learning purposes only