Home » C » Cars »

Cars - Let's Go Bass

Artists:  A B C D E F G H I J K L M N O P Q R S T U V W X Y Z # 

Let's Go Bass

(ver. 1) Click to play this song!
Cars
 Rating:
4/5 (4 votes)
                
i learned this after i watched the video its a pretty cool bass line it kinda follows 
keyboard its not the whole song but its the most known part and on the first little part 
go along with the beat

intro
palm mute this part 2x
|---------------------|---------7--7-6---------------------------|
|--0-00-0-00-00-00----|---7--9---------9--7-----5-4----5-4-------|
|---------------------|-----------------------------5------5-----|
|---------------------|--------------------------------------5---|
change
|--------7--7-6---------------7--7-6-9-|
|---7--9---------9--7----7--9----------|
|--------------------------------------|
|--------------------------------------|


these are the main pieces of the songs you can figure out where they go
            
Submit corrections

↑ Back to top | Tablatures and chords for acoustic guitar and electric guitar, ukulele, drums are parodies/interpretations of the original songs. You may use it for private study, scholarship, research or language learning purposes only