» » »

Carole King - It's Too Late Bass

Artists:  A B C D E F G H I J K L M N O P Q R S T U V W X Y Z # 

It's Too Late Bass

(ver. 1) Click to play this song!
Carole King
 Rating:
4/5 (4 votes)


 It's Too Late lessons Tabs too difficult? Try these video lessons and learn fast
 
                "-----------------------------------------------------------------------------
                      IT'S TOO LATE BABY - Carole King
-----------------------------------------------------------------------------


Tuning: E A D G

VERSE    x4
|----------|
|:--------:|
|:0-305---:|
|----------|

PRECHORUS 1
|---------------|------------|
|--------------2|3-33-333-3--|
|0-000-0----023-|------------|
|-------33-3----|------------|

CHORUS 1
|-------------..-----|---------------/2-|------------------|
|:----..--233-3333-3:|----..--233-333--3|00-02/3-/3-22-22-2|
|:11010013----------:|11010013----------|------------------|
|--------------------|------------------|------------------|

VERSE    x4
|----------|
|:--------:|
|:0-305---:|
|----------|

PRECHORUS 2
|--------------|------------|
|-------------2|3-33-333-3--|
|0-000-0---023-|------------|
|-------3-3----|------------|

CHORUS 2
|-------------..-----|---------------/2-|-----------------|
|:----..--233-3333-3:|----..--233-333--3|00-02/3-/3-5-55-5|
|:11010013----------:|11010013----------|-----------------|
|--------------------|------------------|-----------------|

SOLO
|--------------|3--32--2---|---------------|------------|---2------|---2--9----|
|----023-..--23|--3---2-2--|-------23----23|0-00-02-22-2|--2-0-2-02|--2-0-----2|
|3-33----0013--|---------0-|----013---313--|------------|0------0--|0-------03-|
|--------------|-----------|33-3-----------|------------|----------|-----------|

|---2--9----|---2--9----|---/2--9----|---2--9----|---/2--9----|---2--9----|
|--2-0-----2|--2-0-----2|--2--0-----2|--2-0-----2|--2--0-----2|--2-0-----2|
|0-------03-|0-------03-|0--------03-|0-------03-|0--------03-|0-------03-|
|-----------|-----------|------------|-----------|------------|-----------|

VERSE    x4
|----------|
|:--------:|
|:0-305---:|
|----------|

PRECHORUS 3
|---------------|------------|
|--------------2|3-33-333-3--|
|00-000-0---023-|------------|
|--------3-3----|------------|

CHORUS 3
|-------------------|---------------/2-|--------------|
|:----..--233-333-3:|----..--233-333--3|00-00---------|
|:11010013---------:|11010013----------|------------02|
|-------------------|------------------|------33-333--|

OUTRO                                   . ..
|------------23-|33532-2----57--|7-----10109-.----|-----00-0------|
|----023---23---|-------------5-|-5553------10320-|000-0----------|
|3-33----03-----|--------000----|-----------------|-----------123-|
|---------------|---------------|-----------------|---------33----|

|--------------|--------------|------------|
|--023--333-3--|--023--333-3--|------------|
|33----------3-|33----------3-|33-333-3----|
|--------------|--------------|------------|
"            
Submit corrections



        It's Too Late lessons Hard to play? Try these video lessons and learn fast It's Too Late lessons
        
↑ Back to top | Tablatures and chords for acoustic guitar and electric guitar, ukulele, drums are parodies/interpretations of the original songs. You may use it for private study, scholarship, research or language learning purposes only