» » »

Caro Emerald - Just One Dance Bass

Artists:  A B C D E F G H I J K L M N O P Q R S T U V W X Y Z # 

Just One Dance Bass

(ver. 1) Click to play this song!
Caro Emerald
 Rating:
4.4/5 (7 votes)

 Just One Dance  lessons Tabs too difficult? Try these video lessons and learn fast
 
                INTRO

G|-----------------------------------------------------------------|
D|-------------------------2---2---------------------------2---2---|
A|---------2---2---4---4-------------------2---2---4---4-----------|
E|-4---4---------------------------4---4---------------------------|

G|-----------------------------------------------------------------|
D|-------------------------2---2-------------------2---2---4---4---|
A|---------2---2---4---4-----------4---4---4---4-------------------|
E|-4---4-----------------------------------------------------------|

FIRST VERSE

G|-----------------------------------------------------------------|
D|---------------------------------------------------------2-2-2---|
A|---------2---2---4---4---4---4-----------2---2---4---4-----------|
E|-4---4---------------------------4---4---------------------------|

G|-----------------------------------------------------------------|
D|-------------------------2---2-------------------2---2-----------|
A|---------2---2---4---4-----------4---4---4---4-------------------|
E|-4---4---------------------------------------------------2---2---|

G|-----------------------------------------------------------------|
D|---------------------------------------------------------2---2---|
A|---------2---2---4---4---4---4-----------2---2---4---4-----------|
E|-4---4---------------------------4---4---------------------------|

G|-----------------------------------------------------------------|
D|-------------------------2---2-----------------------------------|
A|---------2---2---4---4-------------------------------------------|
E|-4---4-----------------------------------------------------------|

CHORUS

G|-----------------------------------------------------------------|
D|-------------------------2---2---------------------------2---2---|
A|---------2---2---4---4-------------------2---2---4---4-----------|
E|-4---4---------------------------4---4---------------------------|

G|-----------------------------------------------------------------|
D|-------------------------2---2-------------------2---2---4---4---|
A|---------2---2---4---4-----------4---4---4---4-------------------|
E|-4---4-----------------------------------------------------------|

G|-----------------------------------------------------------------|
D|-----------------------------------------------------------------|
A|-----------------------------------------------------------------|
E|-----------------------------------------------------------------|

SECOND VERSE

G|-----------------------------------------------------------------|
D|-------------------------2---2---------------------------2---2---|
A|---------2---2---4---4-------------------2---2---4---4-----------|
E|-4---4---------------------------4---4---------------------------|

G|-----------------------------------------------------------------|
D|-------------------------2---2-------------------2---2---4---4---|
A|---------2---2---4---4-----------4---4---4---4-------------------|
E|-4---4-----------------------------------------------------------|

G|-----------------------------------------------------------------|
D|---------------------------------------------------------2---2---|
A|---------2---2---4---4---4---4-----------2---2---4---4-----------|
E|-4---4---------------------------4---4---------------------------|

G|-----------------------------------------------------------------|
D|-------------------------2---2-----------------------------------|
A|---------2---2---4---4-------------------------------------------|
E|-4---4-----------------------------------------------------------|

CHORUS

G|-----------------------------------------------------------------|
D|-------------------------2---2---------------------------2---2---|
A|---------2---2---4---4-------------------2---2---4---4-----------|
E|-4---4---------------------------4---4---------------------------|

G|-----------------------------------------------------------------|
D|-------------------------2---2-------------------2---2-----------|
A|---------2---2---4---4-----------4---4---4---4-------------------|
E|-4---4---------------------------------------------------2---2---|

G|-----------------------------------------------------------------|
D|-------------------------2---2---------------------------2---2---|
A|---------2---2---4---4-------------------2---2---4---4-----------|
E|-4---4---------------------------4---4---------------------------|

G|-----------------------------------------------------------------|
D|-------------------------2---2-------------------2---2---4---4---|
A|---------2---2---4---4-----------4---4---4---4-------------------|
E|-4---4-----------------------------------------------------------|

BRIDGE

G|-----------------------------------------------------------------|
D|-----------------------------------------------------------------|
A|-----------------------------------------------------------------|
E|-4~------------------------------0~------------------------------|

G|-----------------------------------------------------------------|
D|-----------------------------------------------------------------|
A|-2~------------------------------4~-------------/-7~-------------|
E|-----------------------------------------------------------------|

G|-----------------------------------------------------------------|
D|-----------------------------------------------------------------|
A|-----------------------------------------------------------------|
E|-----------------------------------------------------------------|

G|-----------------------------------------------------------------|
D|-----------------------------------------------------------------|
A|-----------------------------------------------------------------|
E|-----------------------------------------------------------------|

CHORUS

G|-----------------------------------------------------------------|
D|-------------------------2---2---------------------------2---2---|
A|---------2---2---4---4-------------------2---2---4---4-----------|
E|-4---4---------------------------4---4---------------------------|

G|-----------------------------------------------------------------|
D|-------------------------2---2-------------------2---2-----------|
A|---------2---2---4---4-----------4---4---4---4-------------------|
E|-4---4---------------------------------------------------2---2---|

G|-----------------------------------------------------------------|
D|-------------------------2---2---------------------------2---2---|
A|---------2---2---4---4-------------------2---2---4---4-----------|
E|-4---4---------------------------4---4---------------------------|

G|-----------------------------------------------------------------|
D|-------------------------2---2-------------------2~------4~------|
A|---------2---2---4---4-----------4---4---4---4-------------------|
E|-4---4-----------------------------------------------------------|

G|-----------------------------------------------------------------|
D|-----------------------------------------------------------------|
A|-----------------------------------------------------------------|
E|-----------------------------------------------------------------|
            
Submit corrections


        Just One Dance  lessons Hard to play? Try these video lessons and learn fast Just One Dance  lessons
        
↑ Back to top | Tablatures and chords for acoustic guitar and electric guitar, ukulele, drums are parodies/interpretations of the original songs. You may use it for private study, scholarship, research or language learning purposes only