Home » C » Carl Perkins »

Carl Perkins - Matchbox Bass

Artists:  A B C D E F G H I J K L M N O P Q R S T U V W X Y Z # 

Matchbox Bass

(ver. 1) Click to play this song!
Carl Perkins
Gtr I (E A D G) - 'Clayton Perkins - Double Bass'


 Intro
  Q=180(8=s8)
 4/4
  Gtr I
  W          Q  Q  Q  Q    Q  Q  Q  Q    Q  Q  Q  Q
|----------|-------------|-------------|-------------|
|----------|-7--5-----5--|-7--5-----5--|-7--5-----5--|
|----------|-------7-----|-------7-----|-------7-----|
|----------|-------------|-------------|-------------|


                Chorus
  Q  Q  Q  Q     Q  Q  Q  Q    Q  Q  Q  Q    Q  Q  Q  Q
|-------------||-------------|-------------|--------------|
|-7--5-----5--||-7--5-----5--|-7--5-----5--|-7--5-----5---|
|-------7-----||-------7-----|-------7-----|-------7------|
|-------------||-------------|-------------|--------------|


  Q  Q  Q  Q    Q  Q  Q  Q    Q  Q  Q  Q    Q  Q  Q  Q
|----4--5--6--|----------4--|-5--4--------|----6--9--6---|
|-7-----------|----4--7-----|-------7--4--|-7------------|
|-------------|-5-----------|-------------|--------------|
|-------------|-------------|-------------|--------------|


  Q  Q  Q  Q    Q  Q  Q  Q    Q  Q  Q  Q    Q  Q  Q  Q
|----6--7--8--|-9--7--------|-------------|--------------|
|-7-----------|-------9--6--|----4--5--6--|-7--5-----5---|
|-------------|-------------|-7-----------|-------7------|
|-------------|-------------|-------------|--------------|


                1st Verse
  Q  Q  Q  Q     Q  Q  Q  Q    Q  Q  Q  Q    Q  Q  Q  Q
|-------------||-------------|-------------|--------------|
|-7--5-----5--||-7--5-----5--|-7--5-----5--|-7--5-----5---|
|-------7-----||-------7-----|-------7-----|-------7------|
|-------------||-------------|-------------|--------------|


  Q  Q  Q  Q    Q  Q  Q  Q    Q  Q  Q  Q    Q  Q  Q  Q
|----4--5--6--|----------4--|-5--4--------|----6--9--6---|
|-7-----------|----4--7-----|-------7--4--|-7------------|
|-------------|-5-----------|-------------|--------------|
|-------------|-------------|-------------|--------------|


  Q  Q  Q  Q    Q  Q  Q  Q    Q  Q  Q  Q    Q  Q  Q  Q
|----6--7--8--|-9--7--------|-------------|--------------|
|-7-----------|-------9--6--|----4--5--6--|-7--5-----5---|
|-------------|-------------|-7-----------|-------7------|
|-------------|-------------|-------------|--------------|


                Chorus
  Q  Q  Q  Q     Q  Q  Q  Q    Q  Q  Q  Q    Q  Q  Q  Q
|-------------||-------------|-------------|--------------|
|-7--5-----5--||-7--5-----5--|-7--5-----5--|-7--5-----5---|
|-------7-----||-------7-----|-------7-----|-------7------|
|-------------||-------------|-------------|--------------|


  Q  Q  Q  Q    Q  Q  Q  Q    Q  Q  Q  Q    Q  Q  Q  Q
|----4--5--6--|----------4--|-5--4--------|----6--9--6---|
|-7-----------|----4--7-----|-------7--4--|-7------------|
|-------------|-5-----------|-------------|--------------|
|-------------|-------------|-------------|--------------|


  Q  Q  Q  Q    Q  Q  Q  Q    Q  Q  Q  Q    Q  Q  Q  Q
|----6--7--8--|-9--7--------|-------------|--------------|
|-7-----------|-------9--6--|----4--5--6--|-7--5-----5---|
|-------------|-------------|-7-----------|-------7------|
|-------------|-------------|-------------|--------------|


                Guitar Solo
  Q  Q  Q  Q     Q  Q  Q  Q    Q  Q  Q  Q    Q  Q  Q  Q
|-------------||-------------|-------------|--------------|
|-7--5-----5--||-7--5-----5--|-7--5-----5--|-7--5-----5---|
|-------7-----||-------7-----|-------7-----|-------7------|
|-------------||-------------|-------------|--------------|


  Q  Q  Q  Q    Q  Q  Q  Q    Q  Q  Q  Q    Q  Q  Q  Q
|----4--5--6--|----------4--|-5--4--------|----6--9--6---|
|-7-----------|----4--7-----|-------7--4--|-7------------|
|-------------|-5-----------|-------------|--------------|
|-------------|-------------|-------------|--------------|


  Q  Q  Q  Q    Q  Q  Q  Q    Q  Q  Q  Q    Q  Q  Q  Q
|----6--7--8--|-9--7--------|-------------|--------------|
|-7-----------|-------9--6--|----4--5--6--|-7--5-----5---|
|-------------|-------------|-7-----------|-------7------|
|-------------|-------------|-------------|--------------|


                2nd Verse
  Q  Q  Q  Q     Q  Q  Q  Q    Q  Q  Q  Q    Q  Q  Q  Q
|-------------||-------------|-------------|--------------|
|-7--5-----5--||-7--5-----5--|-7--5-----5--|-7--5-----5---|
|-------7-----||-------7-----|-------7-----|-------7------|
|-------------||-------------|-------------|--------------|


  Q  Q  Q  Q    Q  Q  Q  Q    Q  Q  Q  Q    Q  Q  Q  Q
|----4--5--6--|----------4--|-5--4--------|----6--9--6---|
|-7-----------|----4--7-----|-------7--4--|-7------------|
|-------------|-5-----------|-------------|--------------|
|-------------|-------------|-------------|--------------|


  Q  Q  Q  Q    Q  Q  Q  Q    Q  Q  Q  Q    Q  Q  Q  Q
|----6--7--8--|-9--7--------|-------------|--------------|
|-7-----------|-------9--6--|----4--5--6--|-7--5-----5---|
|-------------|-------------|-7-----------|-------7------|
|-------------|-------------|-------------|--------------|


                Chorus
  Q  Q  Q  Q     Q  Q  Q  Q    Q  Q  Q  Q    Q  Q  Q  Q
|-------------||-------------|-------------|--------------|
|-7--5-----5--||-7--5-----5--|-7--5-----5--|-7--5-----5---|
|-------7-----||-------7-----|-------7-----|-------7------|
|-------------||-------------|-------------|--------------|


  Q  Q  Q  Q    Q  Q  Q  Q    Q  Q  Q  Q    Q  Q  Q  Q
|----4--5--6--|----------4--|-5--4--------|----6--9--6---|
|-7-----------|----4--7-----|-------7--4--|-7------------|
|-------------|-5-----------|-------------|--------------|
|-------------|-------------|-------------|--------------|


  Q  Q  Q  Q    Q  Q  Q  Q    Q  Q  Q  Q    Q  Q  Q  Q
|----6--7--8--|-9--7--------|-------------|--------------|
|-7-----------|-------9--6--|----4--5--6--|-7--5-----5---|
|-------------|-------------|-7-----------|-------7------|
|-------------|-------------|-------------|--------------|


                Guitar Solo
  Q  Q  Q  Q     Q  Q  Q  Q    Q  Q  Q  Q    Q  Q  Q  Q
|-------------||-------------|-------------|--------------|
|-7--5-----5--||-7--5-----5--|-7--5-----5--|-7--5-----5---|
|-------7-----||-------7-----|-------7-----|-------7------|
|-------------||-------------|-------------|--------------|


  Q  Q  Q  Q    Q  Q  Q  Q    Q  Q  Q  Q    Q  Q  Q  Q
|----4--5--6--|----------4--|-5--4--------|----6--9--6---|
|-7-----------|----4--7-----|-------7--4--|-7------------|
|-------------|-5-----------|-------------|--------------|
|-------------|-------------|-------------|--------------|


  Q  Q  Q  Q    Q  Q  Q  Q    Q  Q  Q  Q    Q  Q  Q  Q
|----6--7--8--|-9--7--------|-------------|--------------|
|-7-----------|-------9--6--|----4--5--6--|-7--5-----5---|
|-------------|-------------|-7-----------|-------7------|
|-------------|-------------|-------------|--------------|


                Chorus
  Q  Q  Q  Q     Q  Q  Q  Q    Q  Q  Q  Q    Q  Q  Q  Q
|-------------||-------------|-------------|--------------|
|-7--5-----5--||-7--5-----5--|-7--5-----5--|-7--5-----5---|
|-------7-----||-------7-----|-------7-----|-------7------|
|-------------||-------------|-------------|--------------|


  Q  Q  Q  Q    Q  Q  Q  Q    Q  Q  Q  Q    Q  Q  Q  Q
|----4--5--6--|----------4--|-5--4--------|----6--9--6---|
|-7-----------|----4--7-----|-------7--4--|-7------------|
|-------------|-5-----------|-------------|--------------|
|-------------|-------------|-------------|--------------|


  Q  Q  Q  Q    Q  Q  Q  Q    Q  Q  Q  Q
|----6--7--8--|-9--7--------|----------4--|
|-7-----------|-------9--6--|----4--7-----|
|-------------|-------------|-5-----------|
|-------------|-------------|-------------|


  Q  Q  Q  Q    Q  Q  Q  Q    +W
|-------------|-------------|--------*|
|-7--5-----5--|-7--5-----7--|-(7)----*|
|-------7-----|-------------|--------*|
|-------------|-------------|--------*|
            
Submit corrections

↑ Back to top | Tablatures and chords for acoustic guitar and electric guitar, ukulele, drums are parodies/interpretations of the original songs. You may use it for private study, scholarship, research or language learning purposes only