» » »

My Favorite Game Bass - Cardigans

Artists:  A B C D E F G H I J K L M N O P Q R S T U V W X Y Z # 

My Favorite Game Bass

(ver. 1) Click to play this song!
Cardigans Tabs
4/5 (4 votes)
    My Favorite Game lessons Tabs too difficult? Try these video lessons and learn fast
     I don't know what...
G --------------------------------------
D --------------------------------------
A --3-3-3-3-1-1-1-1--------------------- 
E ---------------------1-1-1-1-4-4-3-3--
   I'm loosing my favorite...
G ------------------------------------
D ------------------------------------
A -3--------------1--3--------------1-
E --------------3-----------------3---

     I'm loosing my favorite, you're loosing...
G ----------------------------
D ----------------------------
A -3-3-1-1-------------------- 
E ----------1-1-4-4---3-------
VARIATION on chorus
       I've tried... 
G ------------------
D ------------------
A -3---4----3----4--
E ------------------
Submit corrections

↑ Back to top | Cardigans Bass for My Favorite Game. Lyrics for acoustic guitar and electric guitar. Tablatures and chords are parodies/interpretations of the original songs. You may use it for private study, scholarship, research or language learning purposes only