Home » C » Cardiacs »

Cardiacs - Visiting Hours Bass

Artists:  A B C D E F G H I J K L M N O P Q R S T U V W X Y Z # 

Visiting Hours Bass

(ver. 1) Click to play this song!
Cardiacs
Intro
  1 + 2 + 3 + 4 +  1 + 2 + 3 + 4 +  
G|----------------|----------------|
D|--------.-------|--------5-.-----|
A|.---.---7---7-7-|7-.-------5-5---|
E|5---5-----------|--7-7-----------|
This is played 4 times before the second part:

  1 + 2 + 3 + 4 +  
G|----------------|
D|----------------|
A|.---.---.---.---|
E|0-000-000-000-00| 
Keep repeating until end:
  1 + 2 + 3 + 4 +  
G|----------------|
D|----------------|
A|2-.-----5-.-----|
E|--2-2-----5-5---| 
The play the first part 4 times again.

Interlude
  1 + 2 + 3 + 4 +  
G|.---.-----.-----|
D|5-.-5-.-.-3-5---|
A|--4---4-6-------|
E|----------------|

Verse
  1 + 2 + 3 + 4 +  1 + 2 + 3 + 4 +  
G|----------------|----------------|
D|----------------|333-555-.---.---|
A|----555-----666-|--------5---5---|
E|111-----666-----|----------------|
Slide into the first F from Bb on the first time the 
riff is played after the interlude. Like this:
  4 +  1 + etc.
E|--6\|111-

Pre-Bridge
  1 + 2 + 3 + 4 +  1 + 2 + 3 + 4 +  1 + 2 + 3 + 4 +  1 + 2 + 3 + 4 +  1 + 2 + 3 + 4 +
G|----------------|----------------|----------9---9-|9---9-9---------|------9-let ring|
D|--------------4-|L-4-4---4-4-----|----------------|----a-a---------|----------------|
A|6---6-6---6-6---|------------5---|5-5---5-5-------|--------5---5-5-|L-5-5-----------|
E|----------------|----------------|----------------|----------------|----------------|
                                              Play the Es quieter
Bridge
  1 + 2 + 3 + 4 +  1 + 2 + 3 + 4 +  
G|-----------66---|-----------.---|
D|----7-R------6--|-----------6-67|
A|--77----------4-|R-----.--------|
E|55--------------|------4--------|

Outro
When the synth starts playing, play a held D on the A string for 4 bars.
Then:
  1 + 2 + 3 + 4 +  1 + 2 + 3 + 4 +  
G|----------------|----------------|
D|--------3-2-----|----------------|
A|5--\1-------3---|--------------3-|
E|--------------3-|L---3-5---5-----|            
Submit corrections

↑ Back to top | Tablatures and chords for acoustic guitar and electric guitar, ukulele, drums are parodies/interpretations of the original songs. You may use it for private study, scholarship, research or language learning purposes only