Home » C » Cardiacs »

Cardiacs - To Go Off And Things Bass

Artists:  A B C D E F G H I J K L M N O P Q R S T U V W X Y Z # 

To Go Off And Things Bass

(ver. 1) Click to play this song!
Cardiacs
Verse/main riff (in 7/8)
  1 2 3 4 5 6 7   
G|--------------|
D|--------------|
A|555555555555--|
E|--------------|
Jim doesn't do this, but it sounds quite good to slide down the neck after the last D.

Middle bit (in 4/4). Do a big slide down the neck on the last Bb. Again used throughout the song.
  1 + 2 + 3 + 4 + 
G|----------------|
D|----------------|
A|----8-8---------|
E|6-6-----6.-6\---|
          (dotted)

Bridge section (after Sarah's saxophone solo)
  1 + 2 + 3 + 4 +  1 + 2 + 3 + 4 +  
G|----------------|----------------|
D|----------------|----------------|
A|5-5-5-5-5-5-5-5-|5-5-5-R-5-5-5-R-|
E|----------------|----------------| x2, then

  1 + 2 + 3 + 4 +  1 + 2 + 3 + 4 +  1 + 2 + 3 + 4 +  1 + 2 + 3 + 4 +  
G|----------------|----------------|----------------|----------------|
D|----------------|----------------|----------------|----------------|
A|5-5-5-5-5-5-5-5-|3-3-3-R-3-3-3-R-|1-1-1-1-1-1-1-1-|----------------|
E|----------------|----------------|----------------|4-4-4-R-4-4-4-R-| x2

Play the main riff twice after this.

Interlude (in 6/8)
  1 2 3 4 5 6  1 2 3 4 5 6                                             5 6 
G|------------|------------|                                         G|----|
D|------------|--------6---|                                         D|----|
A|------------|7---6-----6-| On the final repeat the                 A|5-7-|
E|----------7-|--7---7-----| last two notes are replaced with this:  E|----|

Guitar solo: play main riff.

Verse: exactly the same as before

End on this:
  1 2 3 4 5 6 7   
G|--------------|
D|--------------|
A|55555---------|
E|--------------|            
Submit corrections

↑ Back to top | Tablatures and chords for acoustic guitar and electric guitar, ukulele, drums are parodies/interpretations of the original songs. You may use it for private study, scholarship, research or language learning purposes only