» » »

Carcass - Excoriating Abdominal Emanation Tabs

Artists:  A B C D E F G H I J K L M N O P Q R S T U V W X Y Z # 

Excoriating Abdominal Emanation Tabs

(ver. 1) Click to play this song!
Carcass
 Rating:
4.2/5 (5 votes)

 Excoriating Abdominal Emanation lessons Tabs too difficult? Try these video lessons and learn fast
 
                (Tune down 2.5 steps to B)

I dont take any credit for this tab i just copied and pasted so anyone that wants to learn it can. Enjoy!

 Intro                            Rhy. Fig. 1--------------------+
|--------------------------------|---------------------------------|
|--------------------------------|---------------------------------|
|--------------------------------|---------------------------------|
|-----4---5-------6---7-7----3---|-----6-----7-6-----5-----5-4-----|
|-0-2---0---3-0-4---4---5----1---|-6-7---7-6-----7-6---6-5-----5-4-|
|--------------------------------|---------------------------------|
  s s s s s s s s s s s s e  e     s s s s s s s s s s s s s s s s


1st verse w/Rhy. Fig. 1 (4x), then:

|---------------------------------|---------|---------|---------|
|---------------------------------|---------|---------|---------|
|-----8-----9-8-----7-----7-6-----|---------|---------|---------|
|-8-9-6-9-8-7-6-9-8-5-8-7-5-4-7-6-|----%----|----%----|----%----|
|-6-7---7-6-----7-6---6-5-----5-4-|---------|---------|---------|
|---------------------------------|---------|---------|---------|
  sim.


|----------------------------------|--------------------------------------|
|----------------------------------|--------------------------------------|
|*---------------------------------|-----------------__3__-----__3__-----*|
|*-3-------3-------------3-2---3p2-|-3-------3---------------------------*|
|--1---1-1-1---1-1-1-3-4-----4-----|-1---1-1-1---1-1-3p2p0-----3p2p0------|
|----------------------------------|-----------------------3-0-------3-0--|
   e   s s e   s s s s s s s s s s   e   s s e   s s s s s s s s s s s s


|----------------------|---------|---------|----------------------|
|----------------------|---------|---------|----------------------|
|*---------------------|---------|---------|----------------------|
|*-----------4---------|----%----|----%----|-----------4----------|
|-------4455---5-4h5p4-|---------|---------|------4455---5-4h5p4--|
|--3344----------------|---------|---------|-4455-----------------|


                       1...
|---------------------|---------|---------------------|----------|
|---------------------|---------|---------------------|----------|
|---------------------|---------|---------------------|---------*|
|-----------7---------|----%----|-----------7---------|----%----*|
|------7788---8-7h8p7-|---------|------7788---8-7h8p7-|----------|
|-6677----------------|---------|-7788----------------|----------|


 2...
|---------------------|---------------------|-------------|
|---------------------|---------------------|-------------|
|---------------------|---------------------|-------------|
|-----------5---------|-----------5---------|-------------|
|------5566---6-5h6p5-|------5566---6-5h6p5-|-6-----5--3--|
|-6677----------------|-4455----------------|-4-----3--1--|


|--------------------|-----------------|------------------|
|--------------------|-----------------|------------------|
|*-----------8-------|-----------------|----------8-------|
|*-----------6---9---|-4-----5-----7\6-|-6--------6---9---|
|----------------7---|-2-----3-----5\4-|-4-000000---0-7-0-|
|--0000-0000---0---0-|---000---000-----|------------------|

|---------------------|---------------------|-----------------|
|---------------------|---------------------|-----------------|
|-8-----9-----11~~~~~-|---------------------|-----------------|
|-6-----7------9~~~~~-|---------------------|-4-----5-----7\6-|
|---------------------|------3333-2h3p2-5---|-2-----3-----5\4-|
|---000---000---------|-0000------------3---|---000---000-----|

|------------------|---------------------|
|------------------|---------------------|
|----------8---7---|--------------------*|
|-6--------6---5---|-8-----9------------*|
|-4-000000---0---0-|-6-000-7-000-9~~~~~--|
|------------------|---------------------|


|-----------------------|----------------------|--------|--------|
|-----------------------|----------------------|--------|--------|
|-----------------------|----------------------|--------2--------|
|-----------------------|----------------------|--------%%-------|
|-2--------7p6-6p5p0-8--|-2-------5p4-4p3p0-6--|--------|--------|
|-0------6-----------6--|-0-----4-----------4--|--------|--------|


|----------------------|---------------------|
|----------------------|---------------------|
|*---------------------|---------------------|
|*---------------------|---------------------|
|------8p7p6-6p5p0-8---|-----6p5p4-4p3p0-6---|
|--000-------------6---|-000-------------4---|

|---------------------|------------------|
|---------------------|------------------|
|---------------------|-----------------*|
|---------------------|-----------------*|
|-----8p7p6-6p5p0-8---|-----8-------3----|
|-000-------------6---|-000-6---000-1----|


|------------|----------------------|------------|----------------------|
|------------|----------------------|------------|----------------------|
|*-----------|----------------------|------------|---------------------*|
|*-----------|----------------------|------3-----|---------------------*|
|--2-------4-|-(4)--8p7p6-6p5p0-8---|-2----1--3--|-(3)-6p5p4-4p3p0-6----|
|--0-------2-|-(2)--------------6---|-0-------1--|-(1)-------------4----|


                                                                 Play 4x
|------------|-------------|----------------------|---------------------|
|------------|-------------|----------------------|---------------------|
|------------|-------------|*---------------------|--------------------*|
|------------|-------------|*---------------------|--------------------*|
|-2----------|-(2)---------|----------------------|---------------------|
|-0----------|-(0)---------|--0000-0000-0000------|-0000------0000------|
  w            (w)            ssss ssss ssss q      ssss q    ssss q


 (Solo: rectal intubation with intolerable hot enema)

|----------------------|---------------------|
|----------------------|---------------------|
|*---------------------|---------------------|
|*---------------------|---------------------|
|----------------------|------6666-5555------|
|--0000-0000-0000-0000-|-0000-----------6666-|

|---------------------|----------------------|
|---------------------|----------------------|
|---------------------|---------------------*|
|---------------------|---------------------*|
|---------------------|------5555-4444-------|
|-0000-0000-0000-0000-|-0000-----------5555--|

                                                  Play 4x
|----------|----------------------|----------------------|
|----------|----------------------|----------------------|
|---rest---|*---------------------|---------------------*|
|----------|*---------------------|---------------------*|
|----------|------------4444------|------3333------------|
|----------|--6666-5555------5555-|-4444------4444-3333--|


|------------------------------|----------------------------------|
|------------------------------|----------------------------------|
|*-----------------------------|---------------------------------*|
|*-----4---5-------6---7-7-----|-----4---5-------6---7-7-----3---*|
|--0-2---0---3-0-4---4---5-----|-0-2---0---3-0-4---4---5-----1----|
|------------------------------|----------------------------------|

Then the second half of the song is identical in structure to the
first half.
            
Submit corrections


        Excoriating Abdominal Emanation lessons Hard to play? Try these video lessons and learn fast Excoriating Abdominal Emanation lessons
        
↑ Back to top | Tablatures and chords for acoustic guitar and electric guitar, ukulele, drums are parodies/interpretations of the original songs. You may use it for private study, scholarship, research or language learning purposes only