» » »

Canned Heat - Amphetamine Annie Tabs

Artists:  A B C D E F G H I J K L M N O P Q R S T U V W X Y Z # 

Amphetamine Annie Tabs

(ver. 1) Click to play this song!
Canned Heat
 Rating:
3.8/5 (25 votes)

 Amphetamine Annie  lessons Tabs too difficult? Try these video lessons and learn fast
 
                
INTRO
******
e|--------------|--s-----------------|------------------------------|----------------------|
B|-brp----------|-7\9-7-rbp----------|-----------b-rbp--------------|-b-rbp----------b-----|
G|-6--4---4-6-4-|-------6--4---4-6-4-|-4-6-4--p--6-6--4---4---4--p--|-6-6--4---4---4-6-~~~-|
D|------6-------|------------6-------|-------6-4--------6---6---6-4-|--------6---6---------|
A|--------------|--------------------|------------------------------|----------------------|
E|--------------|--------------------|------------------------------|----------------------|

                                                                                     hold
------------------                                                                   bend
VERSE 1                                                                               | |
********                                                                            b b b rb
e|--------------------|--h----------------------|-------------------|--s------7---|-9-9-9-9--7---|
B|-b-7-rb-------------|-7-9-9-~~-7-rbp----------|--------p----------|-7\9-9-9---9-|------------9-|
G|-6---6--4-----------|------------6--4---4-6-4-|--h--4-6-4---4-6-4-|-------------|--------------|
D|----------6-4-4~~~~-|-----------------6-------|-4-6-------6-------|-------------|--------------|
A|--------------------|-------------------------|-------------------|-------------|--------------|
E|--------------------|-------------------------|-------------------|-------------|--------------|
          hold
          bend
e|-----|---|-|------------|------------|-----------------------------|-------------------|
B|--br-|-b-b-brp----------|-b----b-----|-------------------p-------b-|-brp-------------b-|
G|-4---|-6-6-6--4---4-6-4-|-6-6-4------|--------h----4--4-6-4---4-4--|-6--4---4-6-4---4--|
D|-----|----------6-------|-------6--4-|--s----4-6-6----------6------|------6-------6----|
A|-----|------------------|------------|-4\6-6-----------------------|-------------------|
E|-----|------------------|------------|-----------------------------|-------------------|


------------------
VERSE 2
********                                                                     b            brp 
e|--b-|-----------|-------------|-------------------------------|----------|-9-9-7----b-|-9--7---7-----|
B|-7--|-brp--h-p--|-------------|-Trill..............-----------|-brp------|-------9-7--|------9---9-7-|
G|----|-6--4--6-4-|-----------4-|--h-p-h-p---p---p---p---p--4---|-6--4---4-|------------|--------------|
D|----|-----------|--h----4-6---|-4-6-4-6-4-6-4-6-4-6-4-6-4---6-|------6---|------------|--------------|
A|----|-----------|-4-6-6-------|-------------------------------|----------|------------|--------------|
E|----|-----------|-------------|-------------------------------|----------|------------|--------------|

    b             s      p
e|-11-11-7-----|-9\11-7-9-7---7-----------|--------------------|
B|---------9-9-|------------9---9-7-9-~~~-|-b-rbp--------------|
G|-------------|--------------------------|-6-6--4---4-6-4-6-4-|
D|-------------|--------------------------|--------6-----------|
A|-------------|--------------------------|--------------------|
E|-------------|--------------------------|--------------------|


------------------
01:37
SOLO
*****
e|--------------------|--------------------------------|-----------------------------------|
B|--s-----------------|-brp----------s-----------------|------brp---------------b-brp------|
G|-6\8-~~~~~~~~~~~~~~-|-6--4---4----6\8-~~~~~~~~~~~~~~-|--p---6--4---4---4--p---6-6--4---4-|
D|--------------------|------6---6---------------------|-6-4-------6---6---6-4---------6---|
A|--------------------|--------------------------------|-----------------------------------|
E|--------------------|--------------------------------|-----------------------------------|


e|-------------------------------|---------------------------------------------------------|
B|-b-brp-----------s-------------|-b-b---------------------b---b---b-----b------p----------|
G|-6-6--4---4---4-6\8-~~~~~~~~~~-|-6-4-------4-6-4---4--p--6-6-4-6-4-6-4-6-6-4-6-4---4-6-4-|
D|--------6---6------------------|-----6-4-6-------6---6-4-------------------------6-------|
A|-------------------------------|---------------------------------------------------------|
E|-------------------------------|---------------------------------------------------------|

                                          b    p
e|--s------h---------|--b-9--b----b--p--|-9-7-9-7---7---|--p------|--p-------|--p------------|--p------|
B|-7\9-9--7-9-9--7-9-|-12---12-9-12-7-9-|---------9---9-|-9-7---9-|-9-7---99-|-9-7---9--9--9-|-9-7---9-|
G|-------------------|------------------|---------------|-----8---|-----8----|-----8---------|-----8---|
D|-------------------|------------------|---------------|---------|----------|---------------|---------|
A|-------------------|------------------|---------------|---------|----------|---------------|---------|
E|-------------------|------------------|---------------|---------|----------|---------------|---------|
                                                        b
02:09             s      p                              b 
e|-------7---|---9\11-7-9-7-------|--p------|---------|-7-7--b-12--b-12--b-12--b-12-----|
B|-9-7-9---9-|-9------------9-7-9-|-9-7---9-|-9-7-9-9-|-7---12----12----12----12----9-9-|
G|-----------|--------------------|-----8---|---------|---------------------------------|
D|-----------|--------------------|---------|---------|---------------------------------|
A|-----------|--------------------|---------|---------|---------------------------------|
E|-----------|--------------------|---------|---------|---------------------------------|


e|-------------b--brp------------|--b---b---b---b---b---b---b-11--brp-----------b---brp------------|
B|-s---9----9-11-11--9----9----9-|-11--11--11--11--11--11--11----11--9----9----11--11--9----9----9-|
G|-\10---10------------10---10---|-------------------------------------10---10-----------10---10---|
D|-------------------------------|-----------------------------------------------------------------|
A|-------------------------------|-----------------------------------------------------------------|
E|-------------------------------|-----------------------------------------------------------------|

02:25
    b
e|-11-11--b---brp-----------b----------|--------------------------------|
B|-------11--11--9----9----11-9----9-9-|-brp------------b---------------|
G|-----------------10---10------10-----|-6--4---4---4---6-4-~~~~~~~~~~~-|
D|-------------------------------------|------6---6---6-----------------|
A|-------------------------------------|--------------------------------|
E|-------------------------------------|--------------------------------|


------------------
VERSE 3
********
e|--------------|---------------|-------|--------------|----------|--------------|-----------|
B|-b-7-rb-------|---------------|-------|-brp----------|--b-7-~~~-|-brp----------|--s--------|
G|-6---6--4-6-4-|--h-p-h-p-h-p--|-b-----|-6--4---4---4-|-6--------|-6--4---------|-6\8-~~~~~-|
D|--------------|-4-6-4-6-4-6-4-|-8-8-6-|------6---6---|----------|------6-4-~~~-|-----------|
A|--------------|---------------|-------|--------------|----------|--------------|-----------|
E|--------------|---------------|-------|--------------|----------|--------------|-----------|


e|---------------------|-----------|
B|-b-------------------|-----------|
G|-6-6-4-6-4-6-4-------|---------4-|
D|---------------6-----|--s--4-6---|
A|-----------------4-3-|-4\6-------|
E|---------------------|-----------|


------------------
OUTRO
******
e|--------|--------------|--------------|-------------|--------------------|--------------------|
B|-b------|-7-rb---------|-------b------|-7-rb--------|----------b---4-----|----------b---4-----|
G|-6-~~~~-|---6--4-------|-4-6-4-6-~~~~-|---6-4-------|---------4--6---4---|---------4--6---4---|
D|--------|--------6-~~~-|--------------|-------6-~~~-|--s--4-6----------6-|--s--4-6----------6-|
A|--------|--------------|--------------|-------------|-4\6----------------|-4\6----------------|
E|--------|--------------|--------------|-------------|--------------------|--------------------|            
Submit corrections


        Amphetamine Annie  lessons Hard to play? Try these video lessons and learn fast Amphetamine Annie  lessons
        
↑ Back to top | Tablatures and chords for acoustic guitar and electric guitar, ukulele, drums are parodies/interpretations of the original songs. You may use it for private study, scholarship, research or language learning purposes only