» » »

Candlemass - The Lights Of Thebe Tabs

Artists:  A B C D E F G H I J K L M N O P Q R S T U V W X Y Z # 

The Lights Of Thebe Tabs

(ver. 1) Click to play this song!
Candlemass
 Rating:
4/5 (4 votes)
                ------------------------------------------------------------------------------
------------------------------------------------------------------------------
Band: Candlemass


Hey everyone, this is my tab for this song, and I think it sounds pretty awesome. 
All of the rhythm parts are in here, but I didn't tab the solos. Hopefully 
everything here is accurate, and that you guys find it helpful! If you have any 
comments, questions, or corrections to point out, please feel free to leave a 
message here, or to send me an email! :D


Tuning: C#


Riff 1
|----------------------------------------|
|----------------------------------------|
|----------------------------------------| x6
|-----------------------------------4-5--|
|-----------5-4-----------------4-5------|
|--2-2-3-2------7-6---2-2-3-2------------|
   . . . .            . . . .

Riff 2
|--------|
|--------|
|--------| x1
|--2--5--|
|--2--5--|
|--0--3--|


Riff 3
|-----------------------------------|
|-----------------------------------|
|-----------------------------------| x2
|--6-6-6-6-6-6-6-6-4-4-4-4-6-6-6-6--|
|--4-4-4-4-4-4-4-4-2-2-2-2-4-4-4-4--|
|-----------------------------------|
   . . . . . . . . . . . . . . . .

Riff 4 (Guitar 1)
|-----------------------------------------------|
|-----------------------------------------------|
|-----------------------------------------------| x1
|-----------------------------------------------|
|---------------5-5-4-2-1v~---5-5-4-2-1-1-------|
|--0--2-3-2v~------------------------------3-2--|

Riff 4 (Guitar 2)
|-----------------------------------------------|
|-----------------------------------------------|
|-----------------------------------------------| x1
|--2------4-------------------------------------|
|--2------4-----5-5-4-2-1v~---5-5-4-2-1-1-------|
|--0--2-3-2--------------------------------3-2--|


Riff 5a (Guitar 1)
|--------------------------------|
|--------------------------------|
|--------------------------------| x1
|--------------------------------|
|----------------5-4----2-2-4-5--|
|--3-2----3-2--------------------|

Riff 5a (Guitar 2)
|--------------------------------|
|--------------------------------|
|----------------7-6----4-4-6-7--| x1
|--5-4----5-4----7-6----4-4-6-7--|
|--5-4----5-4----5-4----2-2-4-5--|
|--3-2----3-2--------------------|


Riff 1 x 6

Riff 2 x 1

Riff 3 x 2

Riff 4 x 1


Riff 5b (Guitar 1)
|--------------------------|
|--------------------------|
|-----------------------4--| x1
|-----------------------4--|
|----------------5-4----2--|
|--3-2----3-2--------------|

Riff 5b (Guitar 2)
|--------------------------|
|--------------------------|
|----------------7-6----4--| x1
|--5-4----5-4----7-6----4--|
|--5-4----5-4----5-4----2--|
|--3-2----3-2--------------|


Riff 6
|----------------------------------------|
|----------------------------------------|
|----------------------------------------| x8
|------5-------7-------5-----------------|
|------5-------7-------5--------4h5p4-2--|
|--2-2-3---2-2-5---2-2-3---2-2-----------|
   . .     . .     . .     . .

Riff 7 (Guitar 1)
|-----------------------------|
|-----------------------------|
|--6---5---------------6---6--| x2
|--6---5---------------6---6--|
|--4---3------------2--4---4--|
|----------2--4--5------------|


Riff 7 (Guitar 2)
|-----------------------------|
|-----------------------------|
|--6---5------------4--6---6--| x2
|--6---5---4--6--7--4--6---6--|
|--4---3---4--6--7--2--4---4--|
|----------2--4--5------------|


Riff 8
|-----|
|-----|
|-----| x1 [Note: Guitar 1 only
|--4--|    plays the root note.]
|--4--|
|--2--|


Riff 9 (Guitar 1)
|----------------------------------------|
|----------------------------------------|
|----------------------------------------| x2
|---------------------------2-5-4--5-4v~-|
|---------------------2-4-5--------------|
|--3-2-0-2----3-2-0-2--------------------|
   . . .      . . . . . . . .

Riff 9 (Guitar 2)
|----------------------------------------|
|----------------------------------------|
|----------------------------------------| x2
|--------4------------------2-5-4--5-4v~-|
|--------4------------2-4-5--------------|
|--3-2-0-2----3-2-0-2--------------------|
   . . .      . . . . . . . .

Riff 10
|-----|
|-----|
|-----|
|--2--| x1
|--2--|
|--0--|


Riff 1 x 6

Riff 2 x 1

Riff 3 x 2

Riff 4 x 1

Riff 5b x 1


Riff 11 (Guitar 1)
|----------------------|
|----------------------|
|--2---4---5---7---9v~-| x1
|----------------------|
|----------------------|
|----------------------|

Riff 11 (Guitar 2)
|---------------------|
|---------------------|
|--2---4---5---7---9--| x1
|--2---4---5---7---9--|
|--0---2---3---5---7--|
|---------------------|


|-----|
|-----|
|-----| Song ends on C#.
|--2--|
|--2--|
|--0--|


And that's just about it!


************************************

| /   slide up
| \   slide down
| h   hammer-on
| p   pull-off
| v   vibrato
| .   Mute note
| *   harmonic
| b   Bend
| pb  Pre-bend
| br  Bend release
| pbr Pre-bend release
| brb Bend release bend

************************************
            
Submit corrections

↑ Back to top | Tablatures and chords for acoustic guitar and electric guitar, ukulele, drums are parodies/interpretations of the original songs. You may use it for private study, scholarship, research or language learning purposes only