» » »

Candlebox - Arrow Bass

Artists:  A B C D E F G H I J K L M N O P Q R S T U V W X Y Z # 

Arrow Bass

(ver. 1) Click to play this song!
Candlebox
 Rating:
4.2/5 (5 votes)

 Arrow lessons Tabs too difficult? Try these video lessons and learn fast
 
                Candlebox - "Arrow"
standard bass tuning

A fairly simple bass line played all in the same position. Hope
you like it! Please rate or comment on this if you can.


Intro - play 3x                   Fourth bar
G|------------------------|     |----------------------------|
D|------------------------|     |------------4-2-------------|
A|----------------------0-|     |----------------4-3-2-0-2-4-|
E|-2--2--2-0---2---2-2----|     |-2--2--2-0------------------|


play 3x                           Eighth bar
G|------------------------|     |---------------------------|
D|------------------------|     |-----------4p2---2---------|
A|------------------------|     |---------------4---4-3-2-0-|
E|-2--2--2-0--2--0-0-2-0--|     |-2--2--2-0-----------------|




Verse 

play 3x                           Fourth bar
G|-------------------------|     |---------------------------|
D|-------------------------|     |-----------4p2---2---------|
A|-------------------------|     |---------------4---4-3-2-0-|
E|-2--2--2-0----2---2-2-0--|     |-2--2--2-0-----------------|

"She don't have a name She don't have a face
 Never had much of anything  Yes I 
 see you and I fall from grace"

She don't have the line
She don't have the time
Never had much of anything Yes I 
see you,  I point too
You waste me You want me oh my my!"



Instrument break (0:36)
  play 3x                         fourth bar
G|------------------------|     |----------------------------|
D|------------------------|     |------------4p2---2---------|
A|----------------------0-|     |----------------4---4-3-2-0-|
E|-2--2--2-0---2---2-2----|     |-2--2--2-0------------------|



Play Verse Again - same lyrics



Chorus
G|-----------------------|-----------|-----------------------|
D|-----------------------|-----------|-----------------------|
A|-2--2--2-2---2--2--2---|-0---------|-0------------------0--|
E|-----------------------|-----------|---2---0----2---0-2----|
  "my______      And I'm losing you again now"  

G|------------------------|-----------------------|----------------|
D|------------------------|-------4---------------|----------------|
A|----------------------0-|-2--2----2---2--2--2---|-0--0--0----2p0-|
E|-2--2--2-0---2---2-2----|-----------------------|----------------|
                     "No, No, No, No Feel you slip right down now"


play 3x                           Fourth bar
G|------------------------|     |---------------------------|
D|------------------------|     |-----------4p2---2---------|
A|------------------------|     |---------------4---4-3-2-0-|
E|-2--2--2-0--2--0-0-2-0--|     |-2--2--2-0-----------------|
  "Something's on my mind
   I can't find the time
   Someone's got arrow          Someone's got arrow"


play 3x                           Eighth bar
G|------------------------|     |----------------------|
D|------------------------|     |----------------------|
A|------------------------|     |---------0------------|
E|-2--2--2-0--2--0-0-2-0--|     |-2--2--2--------------|
  "Something's on my mind I wanna tell you but that 
   I can't find the time I wanna feel it
   Someone's got arrow          Someone's got arrow"




Bridge - play 7x with slight ad-lib
G|-------------------------|-------------------------|
D|-2--4--------------------|-2--4--------------------|
A|-------------0-----------|-------------0--2--4--2--|
E|-------2---0----2--0--2--|-------2---0-------------|


Bridge ending as solo starts
G|-------------------------|-------------------------|
D|-2--4--------------------|-2--4--2-----------------|
A|-------------0-----------|----------4--2--0--2--4--|
E|-------2---0----2--0--2--|-------------------------|




Solo (2:06) - play Instrument Break riff 4x through (16 bars total)





Play Chorus to end song, and play the 8-note run in the final bar like this:

G|---------------------------|---------------------------|
D|-----------4p2---2---------|---------------------------|
A|---------------4---4-3-2-0-|---------------------------|
E|-2--2--2-0-----------------|-2--2----------------------|




KEY
| /  slide up
| \  slide down
| h  hammer-on
| p  pull-off
| ~  vibrato
| x  Mute note
            
Submit corrections


        Arrow lessons Hard to play? Try these video lessons and learn fast Arrow lessons
        
↑ Back to top | Tablatures and chords for acoustic guitar and electric guitar, ukulele, drums are parodies/interpretations of the original songs. You may use it for private study, scholarship, research or language learning purposes only