» » »

Camel - Snow Goose Tabs

Artists:  A B C D E F G H I J K L M N O P Q R S T U V W X Y Z # 

Snow Goose Tabs

(ver. 3) Click to play this song!
Camel
 Rating:
4/5 (4 votes)


 Snow Goose lessons Tabs too difficult? Try these video lessons and learn fast
 
                                                       Artist - Camel
                                       --------------
                                    Song - The Snow Goose 
                                    ---------------------
                                    Album - The Snow Goose
                                    ----------------------  

                                       Check Us Out At   
                             ----------------------------------


00:05
Guitar 1
[----------------------------|------------|-----------]
[---------------s------------|------p-----|--brp------]
[--------------7\9-6---s-----|--9--7-6-7--|--9--7--9--]
[-9--7-6--------------7\9-6--|------------|-----------]
[---------7-7----------------|------------|-----------]
[----------------------------|------------|-----------]



[----------------------------|------------|--------]
[---------------s------------|------p-----|--b-r---]
[--------------7\9-6---s-----|--9--7-6-7--|--9--9--]
[-9--7-6--------------7\9-6--|------------|--------]
[---------7------------------|------------|--------]
[----------------------------|------------|--------]


00:41
[----------------------------]
[-------b-----h-----p-----9--]
[-6--7--9----9-11-11-9--6----]
[---------7------------------]
[----------------------------]
[----------------------------]


[----------------------------]
[-------s--------br-------9--]
[-6--7-7\9-------11-9---6----]
[----------7-7---------------]
[----------------------------]
[----------------------------]

01:03               p                           
[---------s----14-14-12---9-10-9---------]
[-10-12-12\14---------------------12-10--]
[----------------------------------------]
[----------------------------------------]
[----------------------------------------]
[----------------------------------------]


        h  p             h  p                    br
[-9-10-9-10-9--------|--9-10-9-10-9--------|--9--9-----]
[-------------12-10--|--------------12-10--|-------10--]
[--------------------|---------------------|-----------]
[--------------------|---------------------|-----------]
[--------------------|---------------------|-----------]
[--------------------|---------------------|-----------]

01:23
[----------------------------]
[-------b-----h-----p-----9--]
[-6--7--9----9-11-11-9--6----]
[---------7------------------]
[----------------------------]
[----------------------------]


[---------------|----------------]
[-------s-------|--s----------9--]
[-6--7-7\9------|-7\9--9-9--6----]
[----------7-7--|----------------]
[---------------|----------------]
[---------------|----------------]


01:45          b              h  p
[---s-----b---12-12--|--9-10-9-10-9-------]
[-10\12--12----------|--------------12-10-]
[--------------------|--------------------]
[--------------------|--------------------]
[--------------------|--------------------]
[--------------------|--------------------]


[-9-10-9--------|--9-10-9--------|--9--------]
[--------12-10--|---------12-10--|----10-10--]
[---------------|----------------|-----------]
[---------------|----------------|-----------]
[---------------|----------------|-----------]
[---------------|----------------|-----------]


02:05
change bit
Guitar 1
[--------------------|------------------------------]
[--------------------|---s-----p--------------------]
[-----s--------------|--9\11--9-7-9-----------------]
[-9--9\11--9--7------|------------------------------]
[---------------9-9--|------------------------------]
[--------------------|------------------------------]
|                                                   |
|                                                   |
|Guitar 2                                           |
|             br                                    |
[--12--14-16-16-14-----br------------b-|-14--br-----]
[---------------------14--14--15-17-17-|----17--17--]
[--------------------------------------|------------]
[--------------------------------------|------------]
[--------------------------------------|------------]
[--------------------------------------|------------]


02:12
Guitar 1
[------------------|----------------|---------------]
[------------------|----------------|---s-----p-----]
[--7-6-6---6-brp---|---s------------|--9\11--9-7-9--]
[------------9--7--|--9\11--9--7----|---------------]
[------------------|-------------9--|---------------]
[------------------|----------------|---------------]
|                                                   |
|                                                   |
|Guitar 2                                           |
|        br               b                         |
[--14-16-16-14----b-----16--14--12--------s---------]
[----------------14-14--------------15--10\---------]
[---------------------------------------------------]
[---------------------------------------------------]
[---------------------------------------------------]
[---------------------------------------------------]

02:23
Guitar 1
[---b----------]
[--9-----------]
[-----7-6------]
[---------7----]
[-----------9--]
[--------------]

02:29
change back
[-----------------------------]
[--------b-----h-----p-----9--]
[--6--7--9----9-11-11-9--6----]
[----------7------------------]
[-----------------------------]
[-----------------------------]



[----------------|----------------]
[--------s-------|--br---------9--]
[--6--7-7\9------|--11--9-9--6----]
[-----------7-7--|----------------]
[----------------|----------------]
[----------------|----------------]


02:52           b              h  p
[----s-----b---12-12--|--9-10-9-10-9-------]
[--10\12--12----------|--------------12-10-]
[---------------------|--------------------]
[---------------------|--------------------]
[---------------------|--------------------]
[---------------------|--------------------]

                           h  p              rb
[--9-10----12-----|--9-10-9-10-9--------|--9-9------]
[-------10----10--|--------------12-10--|-------10--]
[-----------------|---------------------|-----------]
[-----------------|---------------------|-----------]
[-----------------|---------------------|-----------]
[-----------------|---------------------|-----------]
            
Submit corrections



        Snow Goose lessons Hard to play? Try these video lessons and learn fast Snow Goose lessons
        
↑ Back to top | Tablatures and chords for acoustic guitar and electric guitar, ukulele, drums are parodies/interpretations of the original songs. You may use it for private study, scholarship, research or language learning purposes only