» » »

Camel - Slow Yourself Down Tabs

Artists:  A B C D E F G H I J K L M N O P Q R S T U V W X Y Z # 

Slow Yourself Down Tabs

(ver. 1) Click to play this song!
Camel
 Rating:
4.3/5 (23 votes)

 Slow Yourself Down  lessons Tabs too difficult? Try these video lessons and learn fast
 
                (0:00)

e|---------|
B|-8---8---|
G|-7---7---| x 4
D|-9---9---|
A|-7---7---|
E|---------|

[Verse 1]
Em7
They tell me you're searching for a new place,
Em7                               Bm7
They tell me tomorrow will have a true face.
C                       Em
You say that I don't understand,
D                          C
When you speak of your summertime land -
Em                 Bm7               Em
Just slow yourself down, I'm coming along.

(0:35)
e|---------|
B|-8---8---|
G|-7---7---| x 2
D|-9---9---|
A|-7---7---|
E|---------|

[Verse 2]
Em7
They tell me your past often hurt you,
Em7                                Bm7
And even your friends, they would desert you.
C                  Em
But now you are beginning to see,
D                       C
The same things have happened to me -
Em                 Bm7               Em7
Just slow yourself down, I'm coming along.

(1:06)
e|-----------------------------------------------|
B|-----------------------------------------------|
G|-----------------------------------------------|
D|-----------------------------------------------|
A|-2------------2------------2-------------2-----|
E|-0------------0------------0-------------0-----|

[Verse 3]
Em7
You tell me your dreams have been broken,
Em7                             Bm7
And not enough words have been spoken.
C                    Em
The time has come to see it through.
D                    C
Slow down 'coz I'm coming with you -
Em                  Bm7              Em7
Just slow yourself down, I'm coming along.

(1:41)
e|---------------------------------------------------------------------------|
B|-8--8-8--8--8-8--8--8-8--8--8-8---5--5-5--5--5-5---1--1-1---1--1-1---------|
G|-9--9-9--9--9-9--9--9-9--9--9-9---5--5-5--5--5-5---2--2-2---2--2-2---0--0--|
D|-9--9-9--9--9-9--9--9-9--9--9-9---5--5-5--5--5-5---2--2-2---2--2-2---0--2--|
A|-7--7-7--7--7-7--7--7-7--7--7-7---3--3-3--3--3-3---0--0-0---0--0-0---2--2--|
E|---------------------------------------------------------------------3--0--|

(2:02)
*GUITAR SOLO*

(2:37)
e|--------------------------------------10--8--7----------8--7---------------|
B|-7---5-7-8-7-5---5-7----5-7-8-7-5---5-----------10--8-7-------10--8--7-8---|
G|---------------7------------------7----------------------------------------|
D|---------------------------------------------------------------------------|
A|---------------------------------------------------------------------------|
E|---------------------------------------------------------------------------|

(2:47)
*ORGAN SOLO*
Em7  D  Em7  D  C  Am  G  X 3

(3:36)
e|---------------------------------------------------------------------------|
B|-------8--7--------------------------8--7----------------------------------|
G|-----7-------9-------7-------------7-------9------7------------------------|
D|-7h9-------------7h9----5------7h9------------7h9-----9--------------------|
A|---------------------------7-----------------------------------------------|
E|---------------------------------------------------------------------------|

e|---------------------------------------------------------------------------|
B|-------8---8/10-10--10-8--10-8-7--8-7--------------------------------------|
G|-9--9----9----------------------------7-9----------------------------------|
D|---------------------------------------------------------------------------|
A|---------------------------------------------------------------------------|
E|---------------------------------------------------------------------------|

e|---------------------------------------------------------------------------|
B|-------8--7--------------------------8--7----------------------------------|
G|-----7-------9-------7-------------7-------9------7------------------------|
D|-7h9-------------7h9----5------7h9------------7h9-----9--------------------|
A|---------------------------7-----------------------------------------------|
E|---------------------------------------------------------------------------|

e|---------------------------------------------------------------------------|
B|-------8---8/10-10--10-8--10-8-7--8-7---7----------------------------------|
G|-9--9----9----------------------------7------------------------------------|
D|---------------------------------------------------------------------------|
A|---------------------------------------------------------------------------|
E|---------------------------------------------------------------------------|

e|----------------------------------10--8--7----------8--7-------------------|
B|-5-7-8-7-5---5-7----5-7-8-7-5---5-----------10--8-7-------10--8--7-8\------|
G|-----------7------------------7--------------------------------------------|
D|---------------------------------------------------------------------------|
A|---------------------------------------------------------------------------|
E|---------------------------------------------------------------------------|

(4:27)
Outro lick:
e|----------------------------------------------------------------4-5-6-7--7-|
B|-----------------------------------------4-5-6-7--7--7--5-6-7-8------------|
G|------------------1-2-3-4--4--4--4-5-6-7-----------------------------------|
D|-2--2--2--2-3-4-5----------------------------------------------------------|
A|---------------------------------------------------------------------------|
E|---------------------------------------------------------------------------|

e|-0h2p0h2p0h2p0h2p0-etc.|
B|-----------------------|
G|-----------------------|
D|-----------------------|
A|-----------------------|
E|-----------------------|            
Submit corrections


        Slow Yourself Down  lessons Hard to play? Try these video lessons and learn fast Slow Yourself Down  lessons
        
↑ Back to top | Tablatures and chords for acoustic guitar and electric guitar, ukulele, drums are parodies/interpretations of the original songs. You may use it for private study, scholarship, research or language learning purposes only