» » »

Camel - Sasquatch Tabs

Artists:  A B C D E F G H I J K L M N O P Q R S T U V W X Y Z # 

Sasquatch Tabs

(ver. 1) Click to play this song!
Camel
 Rating:
4.3/5 (18 votes)

 Sasquatch  lessons Tabs too difficult? Try these video lessons and learn fast
 
                keyboard theme (arranged for guitar)

e|-----------5--------3--------2--3-----|
B|--------------3--------------------3--|
G|--------5--------5--------5-----------|
D|--0-----------------------------------|
A|--------------------------------------|
E|--------------------------------------|


e|-----------5--------3--------2--3-----|-----------5--------3--------2--3-----|
B|--------------3--------------------3--|--------------3--------------------3--|
G|--------5--------5--------5-----------|--------4--------4--------4-----------|
D|--0-----------------------------------|--0-----------------------------------|
A|--------------------------------------|--------------------------------------|
E|--------------------------------------|--------------------------------------|

                                          repeat          
e|-----------5--------3--------2--3-----||
B|--------------3--------------------3--||
G|--------4--------4--------4-----------||
D|--0-----------------------------------||
A|--------------------------------------||
E|--------------------------------------||


 Guitar:-
 
30 secs
  
e|----------------------------------------------------------|
B|--17b--17b------~--17pbr--15--17--17p--15~----17b---------|
G|----------------------------------------------------------|
D|----------------------------------------------------------|
A|----------------------------------------------------------|
E|----------------------------------------------------------|


                                        40s main theme                       
    36s    
e|-----------15--17------------------|-------------------------------------------|
B|--17b--------------17b--15---------|--7~-----------------8--10-----------------|
G|-----------------------------------|----------------------------7~-------------|
D|-----------------------------------|----------------------------------9--------|
A|-----------------------------------|-------------------------------------------|
E|-----------------------------------|-------------------------------------------|


e|----------------------------------------------------------------|
B|--10pbr----8pbr----7pbr-----------------------------------------|
G|---------------------------9pbr----7----------9b--9pb--9pbr--7--|
D|----------------------------------------9--7--------------------|
A|----------------------------------------------------------------|
E|----------------------------------------------------------------|
      
e|------------------------------------------------------|
B|--7~--------8--10-------------------------------------|
G|-------------------7b~----9b--------------------------|
D|------------------------------------------------------|
A|------------------------------------------------------|
E|------------------------------------------------------|


e|-------------------------------------------------------------------|
B|--<>10pbr----<>8pbr----<>7pbr--------------------------------------|
G|---------------------------------<>9pbr--7----------9b--9pb--9pbr--|
D|----------------------------------------------9--7-----------------|
A|-------------------------------------------------------------------|
E|-------------------------------------------------------------------|

 
e|-------------------------------|---------------7-8----7-----|
B|-----8~--------8h-10-8p-7h-8h--|--7-----7-8-10--------------|
G|--7----------------------------|----------------------------|
D|-------------------------------|----------------------------|
A|-------------------------------|----------------------------|
E|-------------------------------|----------------------------|

  
e|--10br-----~--7--7--------------|--------------------------------------|
B|-----------------------10pbr----|---~--------11b---11b------------~----|
G|--------------------------------|--------------------------------------|
D|--------------------------------|--------------------------------------|
A|--------------------------------|--------------------------------------|
E|--------------------------------|--------------------------------------|


   52 secs       
                                                           
e|--10b-----10--7--------10---------------------|----------------------------|
B|-----------------10b------10--10b----~--------|--10--8-7-------------------|
G|----------------------------------------------|-----------9-7---~----------|
D|----------------------------------------------|----------------------------|
A|----------------------------------------------|----------------------------|
E|----------------------------------------------|----------------------------|


e|----------------------------|---------10---------------------|
B|--11b--11b-----~------------|--10b--------10b----------------|
G|----------------------------|--------------------------------|
D|----------------------------|--------------------------------|
A|----------------------------|--------------------------------|
E|----------------------------|--------------------------------|


    1 min                                                   
e|------------7----8p-7-8p-7----|-------------------------|
B|-----8--10-----------------8--|-------------------------|
G|--7---------------------------|-----7s--9-----~---------|
D|------------------------------|-------------------------|
A|------------------------------|-------------------------|
E|------------------------------|-------------------------|

 
e|------------7----8p-7-8p-7----|--------------10---10---10---10-|
B|-----8--10-----------------8--|--------------------------------|
G|--7---------------------------|-----7------7----7----7----7----|
D|------------------------------|--------------------------------|
A|------------------------------|--------------------------------|
E|------------------------------|--------------------------------|

       
e|----10---10---10---10---10---10---10---10-|-----10---------------|
B|------------------------------------------|----------------------|
G|--7----7----7----7----7----7----7----7----|--7----------7--------|
D|------------------------------------------|----------------------|
A|------------------------------------------|----------------------|
E|------------------------------------------|----------------------|


     1m 16                                  
e|---------------------------------------||
B|--10p---8p--7--------------------------||
G|---------------9p--7-----7-------------||
D|----------------------9----------------||
A|---------------------------------------||
E|---------------------------------------||            
Submit corrections


        Sasquatch  lessons Hard to play? Try these video lessons and learn fast Sasquatch  lessons
        
↑ Back to top | Tablatures and chords for acoustic guitar and electric guitar, ukulele, drums are parodies/interpretations of the original songs. You may use it for private study, scholarship, research or language learning purposes only