» » »

Camel - Rhaydar Alone Tabs

Artists:  A B C D E F G H I J K L M N O P Q R S T U V W X Y Z # 

Rhaydar Alone Tabs

(ver. 1) Click to play this song!
Camel
 Rating:
4.3/5 (25 votes)

 Rhaydar Alone  lessons Tabs too difficult? Try these video lessons and learn fast
 
                00:14
e|-------------------3--s-----|-----------|------s-----s--|
B|-5~~~~-5~~~~-5~~-3---3\1~~~-|-3-5-3-1-0-|-1-3-3\5-6-6\8-|
G|----------------------------|-----------|---------------|
D|----------------------------|-----------|---------------|
A|----------------------------|-----------|---------------|
E|----------------------------|-----------|---------------|


e|-------------------3--s-----|-----------|----------|
B|-5~~~~-5~~~~-5~~-3---3\1~~~-|-3-5-3-1-0-|-1-0------|
G|----------------------------|-----------|-----2~~~-|
D|----------------------------|-----------|----------|
A|----------------------------|-----------|----------|
E|----------------------------|-----------|----------|

00:42                   h  p
e|--------12-13-15-13-12-13-12----------------------s---|----p--------|
B|-13~~~~----------------------13-12---13-11--10~~-8\-5-|-8-5-3---3---|
G|------------------------------------------------------|-------5---2-|
D|------------------------------------------------------|-------------|
A|------------------------------------------------------|-------------|
E|------------------------------------------------------|-------------|

00:57
e|---------------s-----s--------|----------------------|
B|-10-12-12--10-8\10-8-\5-3-5-3-|-8-5----h-p-s---------|
G|------------------------------|-----7-5-7-5\4--------|
D|------------------------------|----------------7-5-7-|
A|------------------------------|----------------------|
E|------------------------------|----------------------|

01:11
e|-------------------3--s-----|-----------|------s-----s--|
B|-5~~~~-5~~~~-5~~-3---3\1~~~-|-3-5-3-1-0-|-1-3-3\5-6-6\8-|
G|----------------------------|-----------|---------------|
D|----------------------------|-----------|---------------|
A|----------------------------|-----------|---------------|
E|----------------------------|-----------|---------------|


e|-------------------3--s-----|-----------|----------|
B|-5~~~~-5~~~~-5~~-3---3\1~~~-|-3-5-3-1-0-|-1-0------|
G|----------------------------|-----------|-----2~~~-|
D|----------------------------|-----------|----------|
A|----------------------------|-----------|----------|
E|----------------------------|-----------|----------|

01:37
e|-----------------------|
B|-10-10~~~--------------|
G|------------------s----|
D|----------7--6-7-7\9-7-|
A|-----------------------|
E|-----------------------|            
Submit corrections


        Rhaydar Alone  lessons Hard to play? Try these video lessons and learn fast Rhaydar Alone  lessons
        
↑ Back to top | Tablatures and chords for acoustic guitar and electric guitar, ukulele, drums are parodies/interpretations of the original songs. You may use it for private study, scholarship, research or language learning purposes only