» » »

Camel - Migration Revised Edition Tabs

Artists:  A B C D E F G H I J K L M N O P Q R S T U V W X Y Z # 

Migration Revised Edition Tabs

(ver. 1) Click to play this song!
Camel
 Rating:
4.3/5 (29 votes)

 Migration Revised Edition  lessons Tabs too difficult? Try these video lessons and learn fast
 
                00:05
SOLO 1
*******
e|---------------------------------|----------------------------------|
B|----------------8----------------|----------------10----------------|
G|-10~~~-9-10-9-7---10-9-7----7~~~-|-10~~~-9-10-9-7----10-9-7----7~~~-|
D|-------------------------10------|--------------------------10------|
A|---------------------------------|----------------------------------|
E|---------------------------------|----------------------------------|


e|----------------------------------|--------------------------------------------------|
B|----------------------------------|--------------------10-13-12-10----12-10----10~~~-|
G|-10~~~-9-7-------7-9--------------|-------7-9--------9-------------12-------12-------|
D|-----------10-7------10-7----7~~~-|-10~~~-----7~~-10---------------------------------|
A|--------------------------10------|--------------------------------------------------|
E|----------------------------------|--------------------------------------------------|

00:25                                        h  p
e|-------------|-------------|-------10-12-10-12-10-------------------------------------------|
B|-12-13-12----|-12-13-12----|-12-13----------------13-12-----------------12~~~---------12----|
G|----------12-|----------12-|----------------------------12-------11~~~~-------11---11----11-|
D|-------------|-------------|-------------------------------9~~~~-----------------9----------|
A|-------------|-------------|----------------------------------------------------------------|
E|-------------|-------------|----------------------------------------------------------------|


------------------------------
00:35
SOLO 2
*******
e|---------------------------------|----------------------------------|
B|----------------8----------------|----------------10----------------|
G|-10~~~-9-10-9-7---10-9-7----7~~~-|-10~~~-9-10-9-7----10-9-7----7~~~-|
D|-------------------------10------|--------------------------10------|
A|---------------------------------|----------------------------------|
E|---------------------------------|----------------------------------|


e|----------------------------------|--------------------------------------------------|
B|----------------------------------|--------------------10-13-12-10----12-10----10~~~-|
G|-10~~~-9-7-------7-9--------------|-------7-9--------9-------------12-------12-------|
D|-----------10-7------10-7----7~~~-|-10~~~-----7~~-10---------------------------------|
A|--------------------------10------|--------------------------------------------------|
E|----------------------------------|--------------------------------------------------|

00:25                                        h  p
e|-------------|-------------|-------10-12-10-12-10-------------------------------------------|
B|-12-13-12----|-12-13-12----|-12-13----------------13-12-----------------12~~~---------12----|
G|----------12-|----------12-|----------------------------12-------11~~~~-------11---11----11-|
D|-------------|-------------|-------------------------------9~~~~-----------------9----------|
A|-------------|-------------|----------------------------------------------------------------|
E|-------------|-------------|----------------------------------------------------------------|


------------------------------
03:36
SOLO 3
*******
e|---------------------------------|----------------------------------|
B|----------------8----------------|----------------10----------------|
G|-10~~~-9-10-9-7---10-9-7----7~~~-|-10~~~-9-10-9-7----10-9-7----7~~~-|
D|-------------------------10------|--------------------------10------|
A|---------------------------------|----------------------------------|
E|---------------------------------|----------------------------------|


e|----------------------------------|--------------------------------------------------|
B|----------------------------------|--------------------10-13-12-10----12-10----10~~~-|
G|-10~~~-9-7-------7-9--------------|-------7-9--------9-------------12-------12-------|
D|-----------10-7------10-7----7~~~-|-10~~~-----7~~-10---------------------------------|
A|--------------------------10------|--------------------------------------------------|
E|----------------------------------|--------------------------------------------------|

00:25                                        h  p
e|-------------|-------------|-------10-12-10-12-10---------------------------------------|
B|-12-13-12----|-12-13-12----|-12-13----------------13-12-----------------11~~~-----------|
G|----------12-|----------12-|----------------------------12-------11~~~~-------10--------|
D|-------------|-------------|-------------------------------9~~~~-----------------8--7~~-|
A|-------------|-------------|------------------------------------------------------------|
E|-------------|-------------|------------------------------------------------------------|

04:08
e|-------------h--p--p------------------------------------------------------------------|
B|------s----12-13-12-10-12--10---------------------------------------------------------|
G|-9~~-9\13---------------------9-------------------------------------------------------|
D|--------------------------------10-9--------------------------------------------------|
A|-------------------------------------10~~~---s---10---s------s----h--p-s--------s-----|
E|-------------------------------------------10\12----10\12--10\8--8-10-8\7--3~~-3\5~~~-|
            
Submit corrections


        Migration Revised Edition  lessons Hard to play? Try these video lessons and learn fast Migration Revised Edition  lessons
        
↑ Back to top | Tablatures and chords for acoustic guitar and electric guitar, ukulele, drums are parodies/interpretations of the original songs. You may use it for private study, scholarship, research or language learning purposes only