» » »

Camel - Long Goodbyes Tabs

Artists:  A B C D E F G H I J K L M N O P Q R S T U V W X Y Z # 

Long Goodbyes Tabs

(ver. 1) Click to play this song!
Camel
 Rating:
4.3/5 (6 votes)

 Long Goodbyes lessons Tabs too difficult? Try these video lessons and learn fast
 
                03:40
SOLO
*****                               b                        h  p
e|-17~~~~~-17~~~~~~-17~~-15-14-17--17--17~~~-|-17-15-14-15-14-15-14----------|
B|-------------------------------------------|----------------------17-15~~~-|
G|-------------------------------------------|-------------------------------|
D|-------------------------------------------|-------------------------------|
A|-------------------------------------------|-------------------------------|
E|-------------------------------------------|-------------------------------|

                                                           h  p
e|--------b--15-17--br------b-----------|-17-17-15-14-15-14-15-14----------|
B|----15-17--------17-15~~-17--17-17~~~-|-------------------------17-15~~~-|
G|-16-----------------------------------|----------------------------------|
D|--------------------------------------|----------------------------------|
A|--------------------------------------|----------------------------------|
E|--------------------------------------|----------------------------------|

04:00
e|-------------h--------------|--------b--15-17--br---------|
B|----15-15--15-17~~~-17~~~~~-|----15-17--------17-15~~~~~~-|
G|-16-------------------------|-16--------------------------|
D|----------------------------|-----------------------------|
A|----------------------------|-----------------------------|
E|----------------------------|-----------------------------|

04:08
e|------------------b--------|-12-12---p-----------------h----------|
B|-15~~~~~~-14-15--17--------|-------14-12-----17~~~--14--15-15~~~~-|
G|--------------------16~~~~-|-------------14-----------------------|
D|---------------------------|--------------------------------------|
A|---------------------------|--------------------------------------|
E|---------------------------|--------------------------------------|

04:20                                         h  p
e|---------b----h--------br---|-17-15-14-15-14-15-14----------|
B|-15~~~~-17--15-17-15--17~~~-|----------------------17-15~~~-|
G|----------------------------|-------------------------------|
D|----------------------------|-------------------------------|
A|----------------------------|-------------------------------|
E|----------------------------|-------------------------------|

04:28
e|-----------------b-17-------|-------h---------|
B|----15-15--15~~-17----17~~~-|-14--15-17-15-15-|
G|-16-------------------------|-----------------|
D|----------------------------|-----------------|
A|----------------------------|-----------------|
E|----------------------------|-----------------|
      hold
04:35 bend
    b  |    p                                 h  p
e|-17-17--17-15-14-15-17~~~~~-|-17-15-14-15-14-15-14----------|
B|----------------------------|----------------------17-15~~~-|
G|----------------------------|-------------------------------|
D|----------------------------|-------------------------------|
A|----------------------------|-------------------------------|
E|----------------------------|-------------------------------|


e|------------h-------s-|--------b--15-17--br--------------------------------|
B|----15-15-15-17-17~~\-|----15-17--------17-15-----15-15-15~~~~~~~~~~~~~~~~-|
G|-16-------------------|-16---------------------16--------------------------|
D|----------------------|----------------------------------------------------|
A|----------------------|----------------------------------------------------|
E|----------------------|----------------------------------------------------|
            
Submit corrections


        Long Goodbyes lessons Hard to play? Try these video lessons and learn fast Long Goodbyes lessons
        
↑ Back to top | Tablatures and chords for acoustic guitar and electric guitar, ukulele, drums are parodies/interpretations of the original songs. You may use it for private study, scholarship, research or language learning purposes only