» » »

Camel - Fritha Tabs

Artists:  A B C D E F G H I J K L M N O P Q R S T U V W X Y Z # 

Fritha Tabs

(ver. 1) Click to play this song!
Camel
 Rating:
4.4/5 (8 votes)

 Fritha  lessons Tabs too difficult? Try these video lessons and learn fast
 
                INTRO
******
  E                         Asus2
e|-------0-----------0-----|-------0-----------0-----|
B|-----0---0-------0---0---|-----0---0-------0---0---|
G|---1-------1---1-------1-|---2-------2---2-------2-|
D|-2-----------2-----------|-2-----------2-----------|
A|-------------------------|-------------------------|
E|-------------------------|-------------------------|X2


--------------------------
00:12
  E                         D
e|-------0-----------0-----|-------2-----------2-----|
B|-----0---0-------0---0---|-----3---3-------3---3---|
G|---1-------1---1-------1-|---2-------2---2-------2-|
D|-2-----------2-----------|-0-----------0-----------|
A|-------------------------|-------------------------|
E|-------------------------|-------------------------|

  Dm            C             D
e|-------1-----|-------0-----|-------2-----------2-----|
B|-----3---3---|-----1---1---|-----3---3-------3---3---|
G|---2-------2-|---0-------0-|---2-------2---2-------2-|
D|-0-----------|-------------|-0-----------0-----------|
A|-------------|-3-----------|-------------------------|
E|-------------|-------------|-------------------------|

  E                         D
e|-------0-----------0-----|-------2-----------2-----|
B|-----0---0-------0---0---|-----3---3-------3---3---|
G|---1-------1---1-------1-|---2-------2---2-------2-|
D|-2-----------2-----------|-0-----------0-----------|
A|-------------------------|-------------------------|
E|-------------------------|-------------------------|

  Dm            C             D
e|-------1-----|-------0-----|-------2-----------2-----|
B|-----3---3---|-----1---1---|-----3---3-------3---3---|
G|---2-------2-|---0-------0-|---2-------2---2-------2-|
D|-0-----------|-------------|-0-----------0-----------|
A|-------------|-3-----------|-------------------------|
E|-------------|-------------|-------------------------|


--------------------------
00:34
e|-5-3-1-3-0----3-2----0------3-2---2-2-----------------0-----|
B|-3-----3---3--3---3--1-1----3---3-3-------0---0-----0---0---|
G|-2-----2------2------0---0--3-----2-----1---1-----1-------2-|
D|-0-----0------0------2------0-----0---2---------2-----------|
A|---------------------3--------------------------------------|
E|------------------------------------------------------------|


--------------------------
00:47
  E                         D
e|-------0-----------0-----|-------2-----------2-----|
B|-----0---0-------0---0---|-----3---3-------3---3---|
G|---1-------1---1-------1-|---2-------2---2-------2-|
D|-2-----------2-----------|-0-----------0-----------|
A|-------------------------|-------------------------|
E|-------------------------|-------------------------|

  Dm            C             D
e|-------1-----|-------0-----|-------2-----------2-----|
B|-----3---3---|-----1---1---|-----3---3-------3---3---|
G|---2-------2-|---0-------0-|---2-------2---2-------2-|
D|-0-----------|-------------|-0-----------0-----------|
A|-------------|-3-----------|-------------------------|
E|-------------|-------------|-------------------------|

  E                         D
e|-------0-----------0-----|-------2-----------2-----|
B|-----0---0-------0---0---|-----3---3-------3---3---|
G|---1-------1---1-------1-|---2-------2---2-------2-|
D|-2-----------2-----------|-0-----------0-----------|
A|-------------------------|-------------------------|
E|-------------------------|-------------------------|

  Dm            C             D
e|-------1-----|-------0-----|-------2-----------2-----|
B|-----3---3---|-----1---1---|-----3---3-------3---3---|
G|---2-------2-|---0-------0-|---2-------2---2-------2-|
D|-0-----------|-------------|-0-----------0-----------|
A|-------------|-3-----------|-------------------------|
E|-------------|-------------|-------------------------|


01:10
e|-5-3-1-3-0----3-2----0------3-2---2-2-|
B|-3-----3---3--3---3--1-1----3---3-3---|
G|-2-----2------2------0---0--3-----2---|
D|-0-----0------0------2------0-----0---|
A|---------------------3----------------|
E|--------------------------------------|
            
Submit corrections


        Fritha  lessons Hard to play? Try these video lessons and learn fast Fritha  lessons
        
↑ Back to top | Tablatures and chords for acoustic guitar and electric guitar, ukulele, drums are parodies/interpretations of the original songs. You may use it for private study, scholarship, research or language learning purposes only