» » »

Camel - Curiosity Tabs

Artists:  A B C D E F G H I J K L M N O P Q R S T U V W X Y Z # 

Curiosity Tabs

(ver. 1) Click to play this song!
Camel
 Rating:
4.3/5 (13 votes)

 Curiosity lessons Tabs too difficult? Try these video lessons and learn fast
 
                [Solo]

e|---------------------------------------------------------------------------|
B|---------------------------------------------------------------------------|
G|---7---7b--7b---7\3----3b--3b--3--2-2b-2b--2-------------------------------|
D|--------------------------------------------------5--5/7--5--5/7\5---------|
A|--------------------------------------------------5--5/7--5--5/7\5---------|
E|---------------------------------------------------------------------------|

e|---------------------------------------------------------------------------|
B|----------------------13---10h13p10---------------------------------11-----|
G|------------------10-----------------10------10--12b14--10--12-------------|
D|----------10--12-------------------------12---------------------12---------|
A|--10--13-------------------------------------------------------------------|
E|---------------------------------------------------------------------------|

e|---------------------------------------------------------------------------|
B|-10--11--------15b16--15--13----11--13--13--15--15b18--15--13--11----------|
G|---------12----------------------------------------------------------------|
D|---------------------------------------------------------------------------|
A|---------------------------------------------------------------------------|
E|---------------------------------------------------------------------------|

e|------------------------------------------|
B|-10-11p10----10-----10-11p10----10--------|
G|----------12-----------------12-----------|
D|------------------------------------------|
A|------------------------------------------|
E|------------------------------------------|

e|----3----------------------------------------------|
B|-------3-------------------------------------------|
G|--------3\2--3-2h3p2----2--3--5-3h5p3--2-----------|
D|---------------------5--------------------5--------|
A|---------------------------------------------------|
E|---------------------------------------------------|

e|---------------------------------------------------|
B|-----------------------13/15--13--11---------------|
G|-------------------12-----------------12-----------|
D|---------------13----------------------------------|
A|-------10--13--------------------------------------|
E|---11----------------------------------------------|

e|----------------------------------------------------------------------------------|
B|-------------------------------------12-10------------------------------10-11-12--|
G|------9--10--9--12--10-9-------------------12-11-10-8--------8-10-11-12-----------|
D|--10----------------------12--------------------------8-9-10----------------------|
A|----------------------------------------------------------------------------------|
E|----------------------------------------------------------------------------------|
            
Submit corrections


        Curiosity lessons Hard to play? Try these video lessons and learn fast Curiosity lessons
        
↑ Back to top | Tablatures and chords for acoustic guitar and electric guitar, ukulele, drums are parodies/interpretations of the original songs. You may use it for private study, scholarship, research or language learning purposes only