» » »

Camel - Air Born Tabs

Artists:  A B C D E F G H I J K L M N O P Q R S T U V W X Y Z # 

Air Born Tabs

(ver. 1) Click to play this song!
Camel
 Rating:
4.3/5 (28 votes)

 Air Born lessons Tabs too difficult? Try these video lessons and learn fast
 
                00:43
e|-----------|-------br-----s----------------|---s------10-11-|
B|-----------|-------8-~~-6-\4-6--------p----|-11\13-13-------|
G|-8~~-7---5-|-5-7-8-------------7~~~--7-5---|----------------|
D|-------8---|-----------------------------8-|----------------|
A|-----------|-------------------------------|----------------|
E|-----------|-------------------------------|----------------|


e|----br--------|-----------p--------------|---------------|
B|-8-11--11-9-8-|-8-9-11-9-9-8-6-6-8-8-----|------p---p----|
G|--------------|----------------------8-8-|-7-5-3-0-3-0-5-|
D|--------------|--------------------------|---------------|
A|--------------|--------------------------|---------------|
E|--------------|--------------------------|---------------|            
Submit corrections


        Air Born lessons Hard to play? Try these video lessons and learn fast Air Born lessons
        
↑ Back to top | Tablatures and chords for acoustic guitar and electric guitar, ukulele, drums are parodies/interpretations of the original songs. You may use it for private study, scholarship, research or language learning purposes only