» » »

Cake - The Distance Bass

Artists:  A B C D E F G H I J K L M N O P Q R S T U V W X Y Z # 

The Distance Bass

(ver. 1) Click to play this song!
Cake
 Rating:
4/5 (4 votes)


 The Distance lessons Tabs too difficult? Try these video lessons and learn fast
 
                Band: Cake
Tuning: Standard(E-A-D-G)
Difficulty: Intermediate


Verse 1 :

G|-----------------------|
D|-----------------------|
A|-5-6-7------5-6-7------|
E|-------0--0-------0-0--| x7

G|------------------------------------------------|
D|---5--------------------------------------------|
A|-7-----7----7--7-5------------------7-7--7-5----|
E|-----7----7--------7--3-3-4-5--7-0-----------7--| x4

Chorus 1 :

G|-----------------------|
D|-----------------------|
A|-5-6-7------5-6-7------|
E|-------0--0-------0-0--| x4

G|----------------------------------------------|
D|---5------------------------------------------|
A|-7----5----------------5---7----7--7-5--------|
E|--------7--7-7--5-3--7---7----7--------7------| 

G|--------------------------------|
D|---5----------------------------|
A|-7----5----------------5---7----|
E|--------7--7-7--5-3--7---7------| 

Verse 2 :

G|-----------------------|
D|-----------------------|
A|-5-6-7------5-6-7------|
E|-------0--0-------0-0--| x6

G|------------------------------------------------|
D|---5--------------------------------------------|
A|-7-----7----7--7-5------------------7-7--7-5----|
E|-----7----7--------7--3-3-4-5--7-0-----------7--| x4

Chorus 2 : 

G|-----------------------|
D|-----------------------|
A|-5-6-7------5-6-7------|
E|-------0--0-------0-0--| x4

G|-----------------------------------------------|
D|---5-------------------------------------------|
A|-7----5----------------5---7----7--7-5---------|
E|--------7--7-7--5-3--7---7----7--------7-------| x3

G|--------------------------------|
D|---5----------------------------|
A|-7----5----------------5---7----|
E|--------7--7-7--5-3--7---7------| 

End part :

G|-----------------------|
D|-----------------------|
A|-5-6-7------5-6-7------|
E|-------0--0-------0-0--| x9
            
Submit corrections



        The Distance lessons Hard to play? Try these video lessons and learn fast The Distance lessons
        
↑ Back to top | Tablatures and chords for acoustic guitar and electric guitar, ukulele, drums are parodies/interpretations of the original songs. You may use it for private study, scholarship, research or language learning purposes only