» » »

Cake - Sick Of You Bass

Artists:  A B C D E F G H I J K L M N O P Q R S T U V W X Y Z # 

Sick Of You Bass

(ver. 1) Click to play this song!
Cake
 Rating:
4/5 (4 votes)


 Sick Of You lessons Tabs too difficult? Try these video lessons and learn fast
 
                -----------------------------------------------------------------
SICK OF YOU - Cake
-----------------------------------------------------------------
Tuning: Standard (E-A-D-G)
     
  THIS IS MY FIRST TAB!!! PLEASE BE EASY ON ME AND GIVE FEEDBACK
   
   Riff 1:
G|---------------|
D|---------------|
A|------------0--| 
E|--0-0-0-2-3----|

   Riff 2:
G|------------------------------|
D|------------------------------|
A|---------------------------5--|
E|--0---0---0-0----0-0-0-2-3----|

Then repeat Riff 1.
For the second chorus its basically just a variation of timing on the first part of Riff 2.
Basically just listen to the song for timing
            
Submit corrections



        Sick Of You lessons Hard to play? Try these video lessons and learn fast Sick Of You lessons
        
↑ Back to top | Tablatures and chords for acoustic guitar and electric guitar, ukulele, drums are parodies/interpretations of the original songs. You may use it for private study, scholarship, research or language learning purposes only