» » »

Cake - Long Time Bass

Artists:  A B C D E F G H I J K L M N O P Q R S T U V W X Y Z # 

Long Time Bass

(ver. 1) Click to play this song!
Cake
 Rating:
4/5 (4 votes)


 Long Time lessons Tabs too difficult? Try these video lessons and learn fast
 
                (Intro)


G ---------------- ----------------|
D ------------7--- ------------7---|
E 0-----0---57---- 0-----0---57--7-|
A ---------------- ----------------|

(Verse ~)
G ---------------- ---------------- ------------------ -------------------|
D ------------7--- ------------7--- -------------10--- -------------10----|
E 0-----0---57---- 0-----0---57--7- ----------810----- ----------810---10-|
A ---------------- ---------------- 8-----8----------- 8-----8------------|

G ---------------- ---------------- ------------------ ----------------|
D ------------7--- ------------7--- -------------10--- ------------9---|
E 0-----0---57---- 0-----0---57--7- ----------810----- ----------79--9-|
A ---------------- ---------------- 8-----8----------- 7-----7---------|

G|---------------- ---------------- ---------------- ----------------|
D|------------7--- ------------7--- ------------7--- ------------7---|
E|0-----0---57---- 0-----0---57--7- 0-----0---57---- 0-----0---57--7-|
A|---------------- ---------------- ---------------- ----------------|
 |...verse 1
 |
G|---------------- ----------------|
D|---------------- ------------7---|
E|---------------- ----------57--7-|
A|---------------- ----------------|
 |...verse 2
 |
G|---------------- ---------------- ---------------- ----------------|
D|---------------- ---------------- ---------------- ----------------|
E|0----0---------- 0----0---------- 0----0---------- 0----0----------|
A|---------------- ---------------- ---------------- ----------------|
 |...verse 3

(~ Verse)
G ---------------- ---------------- ------------------ ----------------|
D ---------(--7--) ---------(--7--) -------------10--- ------------9---|
E 0-----0--(57---) 0-----0--(57--7) ----------810----- ----------79--9-|
A ---------------- ---------------- 8-----8----------- 7-----7---------| () verse 1 only

G ---------------- ----------------|
D ------------7--- ------------7---|
E 0-----0---57---- 0-----0---57--7-|
A ---------------- ----------------|

G ---------------- ---------------- ------------------ ----------------|
D ------------7--- ------------7--- -------------10--- ------------9---|
E 0-----0---57---- 0-----0---57--7- ----------810----- ----------79--9-|
A ---------------- ---------------- 8-----8----------- 7-----7---------|

G ---------------- ----------------|
D ------------7--- ----------------|
E 0-----0---57--7- 0---------------|
A ---------------- ----------------|

(Chorus)
G ---------------- ----------------    |----------------|
D ------------5--- ----------------    |----------------|
E ----------35--5- ----------------    |----------------|
A 3-----3--------- 3--------------- x3 |0-----0-----0---|

|...chorus 1

|---------------- -----|
|---------------- -----|
|---------------- -----|
|0-----0-----0--- 3----|
|... chorus 2


(Bridge)
G ---------------- ---------------- ---------------- ----------------|
D ---------------- ---------------- ---------------- ----------------|
E ---------------- ---------------- ---------------- ----------------|
A 5555--5555------ 5555--5555------ 0000--0000------ 0000--0000------|

G ---------------- ---------------- ---------------- ------------9---|
D ---------------- ---------------- ---------------- ----------79----|
E ---------------- ---------------- 7777--7777------ 7777--777-------|
A 5555--5555------ 5555--5555------ ---------------- ----------------|

G ------------5--- ------------5--- ---------------- ----------------|
D ----------35---- ----------35--5- ------------5--- ------------5---|
E 3-----3--------- 3-----3--------- ----------35---- ----------35--5-|
A ---------------- ---------------- 3-----3--------- 3-----3---------|

G ------------7--- ------------7--- ---------------- ----------------|
D ----------57---- ----------57--7- ---------------- ----------------|
E 5-----5--------- 5-----5--------- ---------------- ----------------|
A ---------------- ---------------- 5-5-5-3-3-3-1-1- 0---------------|

(End)
G ---------------- ----------------|
D ------------7--- ------------7---|
E 0-----0---57---- 0-----0---57--7-|
A ---------------- ----------------| x17

G ---------------- ---------------- ----------------  ----------------|
D ------------7--- ------------7--- ------------7---  ----------------|
E 0-----0---57--7- 0-----0---57---- 0-----0---57--7-  0-----0---------|
A ---------------- ---------------- ----------------  ----------------|
            
Submit corrections



        Long Time lessons Hard to play? Try these video lessons and learn fast Long Time lessons
        
↑ Back to top | Tablatures and chords for acoustic guitar and electric guitar, ukulele, drums are parodies/interpretations of the original songs. You may use it for private study, scholarship, research or language learning purposes only