Home » C » Caifanes »

Caifanes - Viento Bass

Artists:  A B C D E F G H I J K L M N O P Q R S T U V W X Y Z # 

Viento Bass

(ver. 1) Click to play this song!
Caifanes
[Intro] (0:15-0:45)
G|------------------------------|--------------------------------|
D|------------------------------|--------------------------------|
A|------------------------------|--------------------------------| x4
E|-----------------------2---5--|-7--7---7--7----3--3---3--5---7-|
B|-3--3---3--3----3---5---------|--------------------------------|
 
 
[Verse 1] (0:46-1:16)
G|---------------------------------|----------------------------|
D|---------------------------------|----------------------------|
A|-5--5---5---5----5--5---5---5----|----------------------------| x3
E|---------------------------------|-7--7---7--7----3--3---3--5-|
B|---------------------------------|----------------------------|
 
G|---------------------------------|--------------------------------|
D|---------------------------------|--------------------------------|
A|-5--5---5---5----5--5---5---5----|--------------------------------|
E|---------------------------------|-7--7---7--7----3--3---3--5---7-|
B|---------------------------------|--------------------------------|
 
 
[Pre-chorus 1] (1:17-1:31)
G|-----------------|-----------------|-----------------|-----------------|
D|-----------------|-----------------|-----------------|-----------------|
A|-----------------|-----------------|-----------------|-----------------|
E|-2-2-2-2-2-2-2-2-|-2-2-2-2-2-2-2-2-|-3-3-3-3-3-3-3-3-|-3-3-3-3-3-3-3-3-|
B|-----------------|-----------------|-----------------|-----------------|
 
G|-----------------|-----------------|------------------------|
D|-----------------|-----------------|------------------------|
A|-----------------|-----------------|------------------------|
E|-2-2-2-2-2-2-2-2-|-2-2-2-2-2-2-2-2-|-3-3-3-3-3-3-3-3-5----5-|
B|-----------------|-----------------|------------------------|
 
 
[Chorus 1] (1:32-2:02)
G|------------------------------|--------------------------------|
D|------------------------------|--------------------------------|
A|------------------------------|--------------------------------| x4
E|-----------------------2---5--|-7--7---7--7----3--3---3--5---7-|
B|-3--3---3--3----3---5---------|--------------------------------|
 
 
[Post-chorus 1] (2:03-2:17
G|---------------------------------|----------------------------|
D|---------------------------------|----------------------------|
A|-5--5---5---5----5--5---5---5----|----------------------------| x2
E|---------------------------------|-7--7---7--7----3--3---3--5-|
B|---------------------------------|----------------------------|
 
 
[Verse 2] (2:18-2:48)
G|---------------------------------|----------------------------|
D|---------------------------------|----------------------------|
A|-5--5---5---5----5--5---5---5----|----------------------------| x3
E|---------------------------------|-7--7---7--7----3--3---3--5-|
B|---------------------------------|----------------------------|
 
G|---------------------------------|--------------------------------|
D|---------------------------------|--------------------------------|
A|-5--5---5---5----5--5---5---5----|--------------------------------|
E|---------------------------------|-7--7---7--7----3--3---3--5---7-|
B|---------------------------------|--------------------------------|
 
 
[Pre-chorus 2] (2:49-3:04)
G|-----------------|-----------------|-----------------|-----------------|
D|-----------------|-----------------|-----------------|-----------------|
A|-----------------|-----------------|-----------------|-----------------|
E|-2-2-2-2-2-2-2-2-|-2-2-2-2-2-2-2-2-|-3-3-3-3-3-3-3-3-|-3-3-3-3-3-3-3-3-|
B|-----------------|-----------------|-----------------|-----------------|
 
G|-----------------|-----------------|-----------------|---------------|
D|-----------------|-----------------|-----------------|---------------|
A|-----------------|-----------------|-----------------|---------------|
E|-2-2-2-2-2-2-2-2-|-2-2-2-2-2-2-2-2-|-3-3-3-3-3-3-3-3-|-5-----5-5-5-5-|
B|-----------------|-----------------|-----------------|---------------|
 
 
[Chorus 2] (3:05-3:51)
G|------------------------------|--------------------------------|
D|------------------------------|--------------------------------|
A|------------------------------|--------------------------------| x6
E|-----------------------2---5--|-7--7---7--7----3--3---3--5---7-|
B|-3--3---3--3----3---5---------|--------------------------------|
 
G|-------------|
D|-------------|
A|-------------|
E|-------------|
B|-3--3---3--3-|
 
 
To play the song on a four-string version, the E string must be tuned to Drop D to get the right bass.
 
 
[Intro] (0:15-0:45)
G|------------------------------|--------------------------------|
D|------------------------------|--------------------------------|
A|------------------------------|--------------------------------| x4
D|-0--0---0--0----0---2--4---7--|-9--9---9--9----5--5---5--7---9-|
 
 
[Verse 1] (0:46-1:16)
G|---------------------------------|----------------------------|
D|---------------------------------|----------------------------|
A|-5--5---5---5----5--5---5---5----|----------------------------| x3
D|---------------------------------|-9--9---9--9----5--5---5--5-|
 
G|---------------------------------|--------------------------------|
D|---------------------------------|--------------------------------|
A|-5--5---5---5----5--5---5---5----|--------------------------------|
D|---------------------------------|-9--9---9--9----5--5---5--5---7-|
 
 
[Pre-chorus 1] (1:17-1:31)
G|-----------------|-----------------|-----------------|-----------------|
D|-----------------|-----------------|-----------------|-----------------|
A|-----------------|-----------------|-----------------|-----------------|
D|-4-4-4-4-4-4-4-4-|-4-4-4-4-4-4-4-4-|-5-5-5-5-5-5-5-5-|-5-5-5-5-5-5-5-5-|
 
G|-----------------|-----------------|----------------------|
D|-----------------|-----------------|----------------------|
A|-----------------|-----------------|----------------------|
D|-4-4-4-4-4-4-4-4-|-4-4-4-4-4-4-4-4-|-5-5-5-5-5-5-5-5----7-|
 
 
[Chorus 1] (1:32-2:02)
G|------------------------------|--------------------------------|
D|------------------------------|--------------------------------|
A|------------------------------|--------------------------------| x4
D|-0--0---0--0----0---2--4---7--|-9--9---9--9----5--5---5--7---9-|
 
 
[Post-chorus 1] (2:03-2:17
G|---------------------------------|----------------------------|
D|---------------------------------|----------------------------|
A|-5--5---5---5----5--5---5---5----|----------------------------| x2
D|---------------------------------|-9--9---9--9----5--5---5--7-|
 
 
[Verse 2] (2:18-2:48)
G|---------------------------------|----------------------------|
D|---------------------------------|----------------------------|
A|-5--5---5---5----5--5---5---5----|----------------------------| x3
D|---------------------------------|-9--9---9--9----5--5---5--7-|
 
 
G|---------------------------------|--------------------------------|
D|---------------------------------|--------------------------------|
A|-5--5---5---5----5--5---5---5----|--------------------------------|
E|---------------------------------|-9--9---9--9----5--5---5--7---9-|
 
 
[Pre-chorus 2] (2:49-3:04)
G|-----------------|-----------------|-----------------|-----------------|
D|-----------------|-----------------|-----------------|-----------------|
A|-----------------|-----------------|-----------------|-----------------|
D|-4-4-4-4-4-4-4-4-|-4-4-4-4-4-4-4-4-|-5-5-5-5-5-5-5-5-|-5-5-5-5-5-5-5-5-|
 
G|-----------------|-----------------|-----------------|--------------|
D|-----------------|-----------------|-----------------|--------------|
A|-----------------|-----------------|-----------------|--------------|
D|-4-4-4-4-4-4-4-4-|-4-4-4-4-4-4-4-4-|-5-5-5-5-5-5-5-5-|-7----7-7-7-7-|
 
 
[Chorus 2] (3:05-3:51)
G|------------------------------|--------------------------------|
D|------------------------------|--------------------------------|
A|------------------------------|--------------------------------| x6
D|-0--0---0--0----0---2--4---7--|-9--9---9--9----5--5---5--7---9-|
 
G|-------------|
D|-------------|
A|-------------|
D|-0--0---0--0-|
            
Submit corrections

↑ Back to top | Tablatures and chords for acoustic guitar and electric guitar, ukulele, drums are parodies/interpretations of the original songs. You may use it for private study, scholarship, research or language learning purposes only