» » »

Cage The Elephant - Trouble Tabs

Artists:  A B C D E F G H I J K L M N O P Q R S T U V W X Y Z # 

Trouble Tabs

(ver. 1) Click to play this song!
Cage The Elephant
 Rating:
4.3/5 (26 votes)

 Trouble  lessons Tabs too difficult? Try these video lessons and learn fast
 
                
 Intro
e|----------------------------------------8--------7------8-------8---10--|
B|-----5--------9--------10---55555555-----8-----9--9-9-----10----10--10--|
G|---0---0----9--9-9---9----9-75757575--9----9-9-----9--9------9--10--10--|
D|-2--------6-----6--7----------------------------------------------------|
A|------------------------------------------------------------------------|
E|------------------------------------------------------------------------|
 "ooooo, ooo"
e|---8---------7-----8--------8--------8---------7-----8-----8------------|
B|-----8-----9---9-----8--------8--------8-----9---9-----8-----8---8------|
G|-9-----9-9-------9-----9-10-----10-9-----9-9-------9-----9-----9--------|
D|------------------------------------------------------------------------|
A|------------------------------------------------------------------------|
E|------------------------------------------------------------------------|

e|----12-------------12--------12----------13------------|
B|-------13-------12----12--------13----------13---------|
G|-12-------12-13-----------14-------14-14-------14------|
D|-------------------------------------------------------|
A|-------------------------------------------------------|
E|-------------------------------------------------------|

e|----12------------12-----------------------------------|
B|-------13-------12--12--12----13----13----13-----------|
G|-12-------12-13-------13---14----14----14----14--------|
D|-------------------------------------------------------|
A|-------------------------------------------------------|
E|-------------------------------------------------------|


 (Palm mute) "we were at the table, by the window in the view.. "
e|---------------------------------------------------------------------------|
B|---------------------------------------------------------------------------|
G|---------------------------------------------------------------------------|
D|--5555--9999------------------5555--9999-----------------------------------|
A|--3333--7777--7777--3333------3333--7777--77773----------------------------|
E|--------------5555--1111-(x2)-------------55551----------------------------|
 "got so much to lose, got so much to prove"
e|---------------------------------------------------------------------------|
B|---------------------------------------------------------------------------|
G|---------------------------------------------------------------------------|
D|---------------------------------------------------------------------------|
A|-0-0----------------0-0----------------------------------------------------|
E|----4321-1234-(x2)-----4321------------------------------------------------|
 "trouble on my left, trouble on my right"
e|---8---------7---|---------------------------8------------|----------------|
B|-----8-----9---9-|-8---8---9---9---10---10-------10-------|----------------|
G|-9-----9-9-------|---9---9---9---9----9----9---9----9-(x2)|----------------|
D|---------------------------------------------------------------------------|
A|---------------------------------------------------------------------------|
E|---------------------------------------------------------------------------|

e|----12-------------12----------12-------13----13----13----13---------------|
B|-------13-------12---12--12-------13----13----13----13----13---------------|
G|-12-------12-13--------13---14-------14----14----14----14----14------------|
D|---------------------------------------------------------------------------|
A|---------------------------------------------------------------------------|
E|---------------------------------------------------------------------------|

e|----12-------------12--------12----------13------------|
B|-------13-------12----12--------13----------13---------|
G|-12-------12-13-----------14-------14-14-------14------|
D|-------------------------------------------------------|
A|-------------------------------------------------------|
E|-------------------------------------------------------|

e|----12------------12-----------------------------------|
B|-------13-------12--12--12----13----13----13-----------|
G|-12-------12-13-------13---14----14----14----14--------|
D|-------------------------------------------------------|
A|-------------------------------------------------------|
E|-------------------------------------------------------|


(Palm mute) "Will I come to pass or will I pass the test."
e|---------------------------------------------------------------------------|
B|---------------------------------------------------------------------------|
G|---------------------------------------------------------------------------|
D|-5555--9999------------------5555--9999------------------------------------|
A|-3333--7777--7777--3333------3333--7777--77773-----------------------------|
E|-------------5555--1111-(x2)-------------55551-----------------------------|
 "got so much to lose, got so much to prove"
e|---------------------------------------------------------------------------|
B|---------------------------------------------------------------------------|
G|---------------------------------------------------------------------------|
D|---------------------------------------------------------------------------|
A|-0-0---------------0-0-----------------------------------------------------|
E|----4321-1234 (x2)----4321-------------------------------------------------|
 "trouble on my left, trouble on my right"
e|---8---------7---|---------------------------8------------|----------------|
B|-----8-----9---9-|-8---8---9---9---10---10-------10-------|----------------|
G|-9-----9-9-------|---9---9---9---9----9----9---9----9-(x2)|----------------|
D|---------------------------------------------------------------------------|
A|---------------------------------------------------------------------------|
E|---------------------------------------------------------------------------|

e|----12-------------12-------12-------13----------------|
B|-------13-------12----12-------13----13----------------|
G|-12-------12-13----------14-------14-------------------|
D|-------------------------------------------------------|
A|-------------------------------------------------------|
E|-------------------------------------------------------|


 Solo
e|---------------------------------------------------------------------------|
B|---------------------------------------------------------------------------|
G|---------9-7\5-7-5-------99-7\5---------99-7\5------9b10-9b10-9------------|
D|-5---7--------------------------7--------------5---------------------------|
A|---------------------------------------------------------------------------|
E|---------------------------------------------------------------------------|


 "trouble on my left, trouble on my right"
e|---------------------------8-----------------------------------------------|
B|-8---8---9---9---10---10-------10------------------------------------------|
G|---9---9---9---9----9----9---9----9-(x2)-----------------------------------|
D|---------------------------------------------------------------------------|
A|---------------------------------------------------------------------------|
E|---------------------------------------------------------------------------|
 "I said it was love and I did it for life"
e|----12-------------12----------12-------13----13----13----13---------------|
B|-------13-------12---12--12-------13----13----13----13----13---------------|
G|-12-------12-13--------13---14-------14----14----14----14----14------------|
D|---------------------------------------------------------------------------|
A|---------------------------------------------------------------------------|
E|---------------------------------------------------------------------------|

e|----12-------------12-------12-------13----------------|
B|-------13-------12----12-------13-------13----13-------|
G|-12-------12-13----------14-------14-------14----------|
D|-------------------------------------------------------|
A|-------------------------------------------------------|
E|-------------------------------------------------------|

e|----12-------------12---------12-------13--------------|
B|-------13-------12---12--12------13-------13----13-----|
G|-12-------12-13--------13---14------14-------14--------|
D|-------------------------------------------------------|
A|-------------------------------------------------------|
E|-------------------------------------------------------|
                                                                   
e|----12-------------12-------12-------13----------------|
B|-------13-------12----12-------13----13----------------|
G|-12-------12-13----------14-------14-------------------|
D|-------------------------------------------------------|
A|-------------------------------------------------------|
E|-------------------------------------------------------|

Am             F
Got so much to lose,
Am             F
Got so much to prove,
Am               F            c
God don't let me lose my mind.
E, Am, F, Fm, C

            
Submit corrections


        Trouble  lessons Hard to play? Try these video lessons and learn fast Trouble  lessons
        
↑ Back to top | Tablatures and chords for acoustic guitar and electric guitar, ukulele, drums are parodies/interpretations of the original songs. You may use it for private study, scholarship, research or language learning purposes only