» » »

Cage The Elephant - Thats Right Tabs

Artists:  A B C D E F G H I J K L M N O P Q R S T U V W X Y Z # 

Thats Right Tabs

(ver. 1) Click to play this song!
Cage The Elephant
 Rating:
4.3/5 (22 votes)

 Thats Right lessons Tabs too difficult? Try these video lessons and learn fast
 
                [Intro]                                               
e|----------------------------------------------------------------|
B|-------7---10~~~~~~12\7~~~~~--7---10~~~~~~12\7~~~~~--7---10~~~~~|
G|-----9---9------------------9---9------------------9---9--------|
D|----------------------------------------------------------------|
A|----------------------------------------------------------------|
E|----------------------------------------------------------------|

[Verse 1] 00:13
"...........BTR........BTR.................speak my mind...........make you cry..........................."

E|-----------------------------------------|-----------------------------------------------------------------|
B|---------------9---9~~~~~9---9~~~--------|--------------7---10~~~~~------------7---(10)-9---9~~~~~9---9~~~~|
G|-----------------7---------7-------------|------------9---9------------------9---9--------7---------7------|
D|-----------------------------------------|-----------------------------------------------------------------|
A|-----------------------------------------|-----------------------------------------------------------------|
E|---------------------------------0-2-0-5-|-----------------------------------------------------------------|

[Chorus 1] 00:47                  
e||------------------||-----------------9-----------------------------------------------|
B||-7~~~~~~~12~~~~~~~||-7~~~~~~~12~~~12---12-10-12/14~~~~~~~7~~~~~~~12/14~~~~~~~7~~~~~~~|
G||------------------||-----------------------------------------------------------------|
D||------------------||-----------------------------------------------------------------|
A||------------------||-----------------------------------------------------------------|
E||------------------||-----------------------------------------------------------------|

e|--------------------12----12----16-12h14-16----|
B|-9---9-----9---9-------12----------------------|
G|---7---------7---------------------------------|
D|-----------------------------------------------|
A|-----------------------------------------------|
E|-----------------------------------------------|

[Interlude 1] 01:22
e|-----------------------------------------------------|
B|-10~~~~~~12\7~~~~~--7---10~~~~~~12\7~~~~~--7---10~~~~|
G|------------------9---9------------------9---9-------|
D|-----------------------------------------------------|
A|-----------------------------------------------------|
E|-----------------------------------------------------|

[Verse 2] 01:33
"...and a bottle of wine.........leave them far behind...............baby that's right...................."
e|----------------------------------------------------14-1414-----------------------------------------------|
B|------------------------7---10~~~~~---------------------------------------------------9---9~~~~~9---9~~~~~|
G|----------------------9---9-------------------------------------------------------------7---------7-------|
D|----------------------------------------------------------------------------------------------------------|
A|----------------------------------------------------------------------------------------------------------|
E|----------------------------------------------------------------------------------------------------------|

[Chorus 2] 01:53 
e|------------------9--------------------------9----------------------9---------------------------|
B|-7~~~~~~~12~~~~12---12-10-7~~~~~~10~12~~~~12---12-10-7~~~~~~12~~~12---12-10~12/14~~~~~~~7~~~~~~~|
G|------------------------------------------------------------------------------------------------|
D|------------------------------------------------------------------------------------------------|
A|------------------------------------------------------------------------------------------------|
E|------------------------------------------------------------------------------------------------|

e|---------------------------------------12----12-----16-12h14-16-----|
G|-12~~~~~~~7~~~~~~~-9---9-----9---9--------12------------------------|
G|---------------------7---------7------------------------------------|
D|--------------------------------------------------------------------|
E|--------------------------------------------------------------------|
E|--------------------------------------------------------------------|

[Interlude 2] 02:28
e|---------------10~~~~~10------9--10~-11---16N~~~~~~~19N~~~~~~~~|
B|-10~~~~~~10-12------------12~~---------------------------------|
G|---------------------------------------------------------------|
D|---------------------------------------------------------------|
A|---------------------------------------------------------------|
E|---------------------------------------------------------------|

[Chorus 3] 02:40
e|14~~~~~~~16~~~~19-21-17-21------------------19-21-19-17-21----------------19-21-19-17-21~~~~~~~---------|
B|---------------------------19~~~~~~22-21~~~~---------------19~~~~~~~21~~~~---------------------19~~~~~~~|
G|--------------------------------------------------------------------------------------------------------|
D|--------------------------------------------------------------------------------------------------------|
A|--------------------------------------------------------------------------------------------------------|
E|--------------------------------------------------------------------------------------------------------|
 
e|~21~~~~~~~-------------------------------12----12-----16-12h14-16-----|
B|----------19~~~~~~~-9---9-----9---9-----~---12------------------------|
G|----------------------7---------7-------------------------------------|
D|----------------------------------------------------------------------|
A|----------------------------------------------------------------------|
E|----------------------------------------------------------------------|

[Coda] 03:15                                                                 
e|-17~~~~~19----------------17~~~~~~19----------------17N~~~~~~19----------------16----16----|
B|-----------19~~~~17-19-17------------19~~~~17-19-17-------------19~~~~17-19-17----15---15~~|
G|-------------------------------------------------------------------------------------------|
D|-------------------------------------------------------------------------------------------|
A|-------------------------------------------------------------------------------------------|
E|-------------------------------------------------------------------------------------------|

e|-16----16-16---16----19-16-19~~~22-19-22~~~~17~~~~14~~~~~~~~~~~~~~~~~~~| End 03:53
B|----15-------15--------------------------------------------------------|
G|-----------------------------------------------------------------------|
D|-----------------------------------------------------------------------|
A|-----------------------------------------------------------------------|
E|-----------------------------------------------------------------------|            
Submit corrections


        Thats Right lessons Hard to play? Try these video lessons and learn fast Thats Right lessons
        
↑ Back to top | Tablatures and chords for acoustic guitar and electric guitar, ukulele, drums are parodies/interpretations of the original songs. You may use it for private study, scholarship, research or language learning purposes only