» » »

Cage The Elephant - House Of Glass Tabs

Artists:  A B C D E F G H I J K L M N O P Q R S T U V W X Y Z # 

House Of Glass Tabs

(ver. 1) Click to play this song!
Cage The Elephant
 Rating:
4.3/5 (25 votes)

 House Of Glass lessons Tabs too difficult? Try these video lessons and learn fast
 
                [Intro]

   Gtr.1
e||------------------|------------------||
B||------------------|------------------||
B||------------------|------------------||
D||------------------|------------------||
A||------------------|-----------3------||
E||-2---2--2--6---5--|-2---2--2------5--||

[Verse 1]

  Gtr.1                                                                  X3
e||-----------------|-----------------|-----------------|-----------------||
B||-----------------|-----------------|-----------------|-----------------||
G||-----------------|-----------------|-----------------|-----------------||
D||-----------------|-----------------|-----------------|-----------------||
A||-----------------|-----------------|-----------------|-3-3-3-3---------||
E||-2-2-2-2-2-2-2-2-|-6-6-6-6-5-5-5-5-|-2-2-2-2-2-2-2-2-|---------5-5-5-5-||


  Gtr.2 [played over Gtr.1 loops 2&3]

e||-----------------|-----------------|-----------------|--------------------||
B||-7---------------|-10--------------|-7---------------|-10--12--9--10-9-10-||
G||-6---------------|-9---------------|-6---------------|-9---11--8--9--8-9--||
D||-----------------|-----------------|-----------------|--------------------||
A||-----------------|-----------------|-----------------|--------------------||
E||-----------------|-----------------|-----------------|--------------------||

[Pre-Chorus 1]

 Gtr.2
e|-----------------------------|-------------------------|
B|-/15-15-15-15-15-15-15-15-15-|-12-12-12-12-12-12-12-12-|
G|-/14-14-14-14-14-14-14-14-14-|-11-11-11-11-11-11-11-11-|
D|-----------------------------|-------------------------|
A|-----------------------------|-------------------------|
E|-----------------------------|-------------------------|

e|--------------------------|---------|
B|-14-14-14-14-14-14-14-14\-|-7-7-7-7-|
G|-13-13-13-13-13-13-13-13\-|-6-6-6-6-|
D|--------------------------|---------|
A|--------------------------|---------|
E|--------------------------|---------|

[Chorus 1]

Gtr.1
e|-----------------|-----------------|-----------------|-----------------|
B|-----------------|-----------------|-----------------|-----------------|
G|-7-7-7-7-7-7-7-7-|-4-4-4-4-4-4-4-4-|-6-6-6-6-6-6-6-6-|-----------------|
D|-7-7-7-7-7-7-7-7-|-4-4-4-4-4-4-4-4-|-6-6-6-6-6-6-6-6-|-4-4-4-4-4-4-4-4-|
A|-5-5-5-5-5-5-5-5-|-2-2-2-2-2-2-2-2-|-4-4-4-4-4-4-4-4-|-4-4-4-4-4-4-4-4-|
E|-----------------|-----------------|-----------------|-2-2-2-2-2-2-2-2-|
                                                                 x4
e|-----------------|-----------------|-----------------||---------||
B|-----------------|-----------------|-----------------||---------||
G|-7-7-7-7-7-7-7-7-|-4-4-4-4-4-4-4-4-|-6-6-6-6-6-6-6-6-||---------||
D|-7-7-7-7-7-7-7-7-|-4-4-4-4-4-4-4-4-|-6-6-6-6-6-6-6-6-||-4/7-7-7-||
A|-5-5-5-5-5-5-5-5-|-2-2-2-2-2-2-2-2-|-4-4-4-4-4-4-4-4-||-4/7-7-7-||
E|-----------------|-----------------|-----------------||-2/5-5-5-||

[Verse 2]

  Gtr.1                                                                  X3
e||-----------------|-----------------|-----------------|-----------------||
B||-----------------|-----------------|-----------------|-----------------||
G||-----------------|-----------------|-----------------|-----------------||
D||-----------------|-----------------|-----------------|-----------------||
A||-----------------|-----------------|-----------------|-3-3-3-3---------||
E||-2-2-2-2-2-2-2-2-|-6-6-6-6-5-5-5-5-|-2-2-2-2-2-2-2-2-|---------5-5-5-5-||

 Gtr.2 [played over Gtr.1 loops 2&3]
e||-----------------|-----------------|-----------------|--------------------||
B||-7---------------|-10--------------|-7---------------|-10--12--9--10-9-10-||
G||-6---------------|-9---------------|-6---------------|-9---11--8--9--8-9--||
D||-----------------|-----------------|-----------------|--------------------||
A||-----------------|-----------------|-----------------|--------------------||
E||-----------------|-----------------|-----------------|--------------------||

Gtr.1
e||-----------------|-----------------||
B||-----------------|-----------------||
G||-----------------|-----------------||
D||-----------------|-----------------||
A||-----------------|-----------------||
E||-2-2-2-2-2-2-2-2-|-6-6-6-6-5-5-5-5-||

[Pre-Chorus 2]

 Gtr.2
e|-----------------------------|-------------------------|
B|-/15-15-15-15-15-15-15-15-15-|-12-12-12-12-12-12-12-12-|
G|-/14-14-14-14-14-14-14-14-14-|-11-11-11-11-11-11-11-11-|
D|-----------------------------|-------------------------|
A|-----------------------------|-------------------------|
E|-----------------------------|-------------------------|

e|--------------------------|---------|
B|-14-14-14-14-14-14-14-14\-|-7-7-7-7-|
G|-13-13-13-13-13-13-13-13\-|-6-6-6-6-|
D|--------------------------|---------|
A|--------------------------|---------|
E|--------------------------|---------|

[Chorus 2]

Gtr.1
e|-----------------|-----------------|-----------------|-----------------|
B|-----------------|-----------------|-----------------|-----------------|
G|-7-7-7-7-7-7-7-7-|-4-4-4-4-4-4-4-4-|-6-6-6-6-6-6-6-6-|-----------------|
D|-7-7-7-7-7-7-7-7-|-4-4-4-4-4-4-4-4-|-6-6-6-6-6-6-6-6-|-4-4-4-4-4-4-4-4-|
A|-5-5-5-5-5-5-5-5-|-2-2-2-2-2-2-2-2-|-4-4-4-4-4-4-4-4-|-4-4-4-4-4-4-4-4-|
E|-----------------|-----------------|-----------------|-2-2-2-2-2-2-2-2-|
                                                                 x4
e|-----------------|-----------------|-----------------||---------||
B|-----------------|-----------------|-----------------||---------||
G|-7-7-7-7-7-7-7-7-|-4-4-4-4-4-4-4-4-|-6-6-6-6-6-6-6-6-||---------||
D|-7-7-7-7-7-7-7-7-|-4-4-4-4-4-4-4-4-|-6-6-6-6-6-6-6-6-||-4/7-7-7-||
A|-5-5-5-5-5-5-5-5-|-2-2-2-2-2-2-2-2-|-4-4-4-4-4-4-4-4-||-4/7-7-7-||
E|-----------------|-----------------|-----------------||-2/5-5-5-||

[Segue]

e||-----12--10----------||
B||-10---------10-------||
G||---------------11----||
D||---------------------||
A||---------------------||
E||---------------------||

[Bridge]


Gtr.1
e||-----------------|-----------------|-----------------|--------------||
B||-----------------|-----------------|-----------------|--------------||
G||-7-7-7-7-7-7-7-7-|-4-4-4-4-4-4-4-4-|-6-6-6-6-6-6-6-6-|--------------||
D||-7-7-7-7-7-7-7-7-|-4-4-4-4-4-4-4-4-|-6-6-6-6-6-6-6-6-|4-4-4-4-4-4-4-||
A||-5-5-5-5-5-5-5-5-|-2-2-2-2-2-2-2-2-|-4-4-4-4-4-4-4-4-|4-4-4-4-4-4-4-||
E||-----------------|-----------------|-----------------|2-2-2-2-2-2-2-||
Gtr.2 
e||-----------------|-----------------|-----------------|--------------||
B||---13---13-------|---12---12-------|---14---14-------|---7---7------||
G||---15b-----------|---14b-----------|---16b-----------|---9b---------||
D||-----------------|-----------------|-----------------|--------------||
A||-----------------|-----------------|-----------------|--------------||
E||-----------------|-----------------|-----------------|--------------||

[Chorus 3]

Gtr.1
e|-----------------|-----------------|-----------------|-----------------|
B|-----------------|-----------------|-----------------|-----------------|
G|-7-7-7-7-7-7-7-7-|-4-4-4-4-4-4-4-4-|-6-6-6-6-6-6-6-6-|-----------------|
D|-7-7-7-7-7-7-7-7-|-4-4-4-4-4-4-4-4-|-6-6-6-6-6-6-6-6-|-4-4-4-4-4-4-4-4-|
A|-5-5-5-5-5-5-5-5-|-2-2-2-2-2-2-2-2-|-4-4-4-4-4-4-4-4-|-4-4-4-4-4-4-4-4-|
E|-----------------|-----------------|-----------------|-2-2-2-2-2-2-2-2-|


Gtr.2 
e|-----------------|-----------------|-----------------|---------------------|
B|-----------------|-5---7---7---7---|-----------------|-12---14---14---14---|
G|-----------------|-7b--9b--9b--9b--|-----------------|-14b--16b--16b--16b--|
D|-----------------|-----------------|-----------------|---------------------|
A|-----------------|-----------------|-----------------|---------------------|
E|-----------------|-----------------|-----------------|---------------------|


Gtr.1
e|-----------------|-----------------|-----------------|-----------------|
B|-----------------|-----------------|-----------------|-----------------|
G|-7-7-7-7-7-7-7-7-|-4-4-4-4-4-4-4-4-|-6-6-6-6-6-6-6-6-|-----------------|
D|-7-7-7-7-7-7-7-7-|-4-4-4-4-4-4-4-4-|-6-6-6-6-6-6-6-6-|-4-4-4-4-4-4-4-4-|
A|-5-5-5-5-5-5-5-5-|-2-2-2-2-2-2-2-2-|-4-4-4-4-4-4-4-4-|-4-4-4-4-4-4-4-4-|
E|-----------------|-----------------|-----------------|-2-2-2-2-2-2-2-2-|


Gtr.2 
e|-----------------|-----------------|-----------------||-14--14--14--14--||
B|-----------------|-7---7---7---7---|-----------------||-17b-17b-17b-17b-||
G|-----------------|-9b--9b--9b--9  b--|-----------------||-----------------||
D|-----------------|-----------------|-----------------||-----------------||
A|-----------------|-----------------|-----------------||-----------------||
E|-----------------|-----------------|-----------------||-----------------||

{Outro].   

Gtr.1
e|-----------------|-----------------|-----------------|-----------------|
B|-----------------|-----------------|-----------------|-----------------|
G|-7-7-7-7-7-7-7-7-|-4-4-4-4-4-4-4-4-|-6-6-6-6-6-6-6-6-|-----------------|
D|-7-7-7-7-7-7-7-7-|-4-4-4-4-4-4-4-4-|-6-6-6-6-6-6-6-6-|-4-4-4-4-4-4-4-4-|
A|-5-5-5-5-5-5-5-5-|-2-2-2-2-2-2-2-2-|-4-4-4-4-4-4-4-4-|-4-4-4-4-4-4-4-4-|
E|-----------------|-----------------|-----------------|-2-2-2-2-2-2-2-2-|


Gtr.2 
e||-14--14--14--14--||-14--14--14--14--||-14--14--14--14--||-16-16-16-16-17-17-17-17-|
B||-17b-17b-17b-17b-||-17b-17b-17b-17b-||-17b-17b-17b-17b-||-------------------------|
G||-----------------||-----------------||---\-------------||-------------------------|
D||-----------------||-----------------||-----------------||-------------------------|
A||-----------------||-----------------||-----------------||-------------------------|
E||-----------------||-----------------||-----------------||-------------------------|

                                                                X4
e|-----------------|-----------------|-----------------||---------||
B|-----------------|-----------------|-----------------||---------||
G|-7-7-7-7-7-7-7-7-|-4-4-4-4-4-4-4-4-|-6-6-6-6-6-6-6-6-||---------||
D|-7-7-7-7-7-7-7-7-|-4-4-4-4-4-4-4-4-|-6-6-6-6-6-6-6-6-||-4/7-7-7-||
A|-5-5-5-5-5-5-5-5-|-2-2-2-2-2-2-2-2-|-4-4-4-4-4-4-4-4-||-4/7-7-7-||
E|-----------------|-----------------|-----------------||-2/5-5-5-||


Gtr.2                                                   |--------16th notes-------|  
e|-14--14--14--14--|-14--14--14--14--|-14--14--14--14--||-16-16-16-16-16-16-16-16-||
B|-17b-17b-17b-17b-|-17b-17b-17b-17b-|-17b-17b-17b-17b-||-------------------------||
G|-----------------|-----------------|-----------------||-------------------------||
D|-----------------|-----------------|-----------------||-------------------------||
A|-----------------|-----------------|-----------------||-------------------------||
E|-----------------|-----------------|-----------------||-------------------------||

            
Submit corrections


        House Of Glass lessons Hard to play? Try these video lessons and learn fast House Of Glass lessons
        
↑ Back to top | Tablatures and chords for acoustic guitar and electric guitar, ukulele, drums are parodies/interpretations of the original songs. You may use it for private study, scholarship, research or language learning purposes only