» » »

Cage The Elephant - Cold Cold Cold Tabs

Artists:  A B C D E F G H I J K L M N O P Q R S T U V W X Y Z # 

Cold Cold Cold Tabs

(ver. 1) Click to play this song!
Cage The Elephant
 Rating:
4.4/5 (5 votes)

 Cold Cold Cold  lessons Tabs too difficult? Try these video lessons and learn fast
 
                [Intro]

Guitar 1
e|-----------------|-----------------|-----------------------|
B|-----------------|-----------------|-----------------------|
G|-----------------|-----------------|-12--12-10--12-14-1414-|
D|-5--5-3--5-7-777-|-5--5-3--5-7-777-|-----------------------|
A|-----------------|-----------------|-----------------------|
E|-----------------|-----------------|-----------------------|

Guitar 2
e|--------------------|--------------------|-------------------------|--------------------------|
B|--------------------|--------------------|-------------------------|-------------10-10-10-10--|
G|---3----2---3----7--|---3----2---3----7--|---3----2----7------11---|-11-11-11-11--11-11-11-11-|
D|-5--5-3--3-5--7-7-7-|-5--5-3--3-5--7-7-7-|-5--5-3--3-/8--12-12--12-|--12-12-12-12-------------|
A|--------------------|--------------------|-------------------------|--------------------------|
E|--------------------|--------------------|-------------------------|--------------------------|


[Verse 1]

(almost same as Intro)

Guitar 1 
e|-----------------|-----------------|-------------------|-----------------|
B|-----------------|-----------------|-------------------|-----------------|
G|-----------------|-----------------|-------------------|-----------------|
D|-5--5-3--5-7-777-|-5--5-3--5-7-777-|-5--5-3------------|-5--5-3--5-7-777-|
A|-----------------|-----------------|--------1-1--5-555-|-----------------|
E|-----------------|-----------------|-------------------|-----------------|
 
Guitar 2
e|--------------------|--------------------|-------------------------|--------------------|
B|-----------------3--|-----------------3--|-------------------------|-----------------3--|
G|---3----2---3-2-2-2-|---3----2---3-2-2-2-|---3----2----7-11---11---|---3----2---3-2-2-2-|
D|-5--5-3--3-5--------|-5--5-3--3-5--------|-5--5-3--3-/8-----12--12-|-5--5-3--3-5--------|
A|--------------------|--------------------|-------------------------|--------------------|
E|--------------------|--------------------|-------------------------|--------------------|
  Doctor    look into my eyes        I've been breathing  air but there's no sign of life

repeat on both guitars 

(singer: Doctor,the problem's in my chest. My heart feels cold as ice but it's anybody's guess.)


[Pre-Chorus 1]

Guitar 1 plays just chords - Gmi F A# D (on fourth time let D ring)

Guitar 2
e|---10--------8----10---10-----|    |---10--------8----10---------------------|
B|-----11----10---11-------10---|    |-----11----10---11----15--13--11-10-8-10-|
G|-12----12------------11----11-| 3? |-12----10--------------------------------|
D|------------------------------|    |-----------------------------------------|
A|------------------------------|    |-----------------------------------------|
E|------------------------------|    |-----------------------------------------|

(singer: Doctor can you help me cause I don't feel right
         Better make it fast before I change my mind
         Doctor can you help me cause I don't feel right
         Better make it fast before I change my mind)


[Chorus 1]

(almost same as Pre-Chorus)

Guitar 1 plays just chords - Gmi F A# D (five times)

Guitar 2
e|---10----------8----10---10-----|    
B|-----11------10---11-------10---|    
G|-12----12-(10)---------11----11-| 5?
D|--------------------------------|    
A|--------------------------------|   
E|--------------------------------|    

(singer: Well it's cold, cold, cold, cold inside
         Darker in the day than the dead of night
         Cold, cold, cold, cold inside
         Doctor can you help me cause something don't feel right
         Something just ain´t right)


[Verse 2]

Guitar 1
e|-----------------|-----------------|
B|-----------------|-----------------|
G|-----------------|-----------------|
D|-5--5-3--5-7-777-|-5--5-3--5-7-777-|
A|-----------------|-----------------|
E|-----------------|-----------------|

Guitar 2
e|--------------------|--------------------|
B|-----------------3--|-----------------3--|
G|---3----2---3-2-2-2-|---3----2---3-2-2-2-|
D|-5--5-3--3-5--------|-5--5-3--3-5--------|
A|--------------------|--------------------|
E|--------------------|--------------------|

Guitar 1
e|-----------------|-----------------|-------------------|-----------------|
B|-----------------|-----------------|-------------------|-----------------|
G|-----------------|-----------------|-------------------|-----------------|
D|-5--5-3--5-7-777-|-5--5-3--5-7-777-|-5--5-3------------|-5--5-3--5-7-777-|
A|-----------------|-----------------|--------1-1--5-555-|-----------------|
E|-----------------|-----------------|-------------------|-----------------|

Guitar 2
e|-3---------------|-----------------|-3-----------------|-----------------|
B|-3---------------|-----------------|-3-----------------|-----------------|
G|-3---------------|-----------------|-3-----------------|-----------------|
D|-5---------------|-----------------|-5-----------------|-----------------|
A|-----------------|-----------------|-------------------|-----------------|
E|-----------------|-----------------|-------------------|-----------------|
Sweet nurse  don't look at me that way I've seen those eyes before I can tell you want to play

Guitar 1
e|-----------------|-----------------|-------------------|-----------------|
B|-----------------|-----------------|-------------------|-----------------|
G|-----------------|-----------------|-------------------|-----------------|
D|-5--5-3--5-7-777-|-5--5-3--5-7-777-|-5--5-3------------|-5--5-3--5-7-777-|
A|-----------------|-----------------|--------1-1--5-555-|-----------------|
E|-----------------|-----------------|-------------------|-----------------|

Guitar 2
e|--------------------|--------------------|-------------------------|--------------------|
B|-----------------3--|-----------------3--|-------------------------|-----------------3--|
G|---3----2---3-2-2-2-|---3----2---3-2-2-2-|---3----2----7-11---11---|---3----2---3-2-2-2-|
D|-5--5-3--3-5--------|-5--5-3--3-5--------|-5--5-3--3-/8-----12--12-|-5--5-3--3-5--------|
A|--------------------|--------------------|-------------------------|--------------------|
E|--------------------|--------------------|-------------------------|--------------------|
  Counselor    give me some advice    Tell me how hard will I fall if I live a double life


[Pre/Chorus 2] same as Pre/Chorus 1


[Chorus 2] 

(almost same as Chorus 1)

Guitar 1 - Gmi F A# D (six times)

Guitar 2
e|---10----------8----10---10-----|    
B|-----11------10---11-------10---|    
G|-12----12-(10)---------11----11-| 6?
D|--------------------------------|    
A|--------------------------------|   
E|--------------------------------|    

on the end of it:

Guitar 1 - Gmi D

Guitar 2 (strum)
e|-10-10-10-10-|-10-10-10-10-|-10-10-10-10-|-10-10-10-10-|
B|-11-11-11-11-|-11-11-11-11-|-10-10-10-10-|-10-10-10-10-|
G|-12-12-12-12-|-12-12-12-12-|-11-11-11-11-|-11-11-11-11-|
D|-------------|-------------|-------------|-------------|
A|-------------|-------------|-------------|-------------|
E|-------------|-------------|-------------|-------------|


[Bridge]

Guitar 1 - A# D Gm F 3?

Guitar 2 (strum)
e|-10--------------|-14---------------|-15----------------|-13---------------|
B|-?---------------|-?----------------|-?-----------------|-?----------------|
G|-7---------------|-11---------------|-12----------------|-10---------------|
D|-?---------------|-?----------------|-?-----------------|-?----------------|
A|-?---------------|-?----------------|-?-----------------|-?----------------|
E|-?---------------|-?----------------|-?-----------------|-?----------------|

e|-10--------------|-14---------------|-15----------------|-17---------------|
B|-?---------------|-?----------------|-?-----------------|-?----------------|
G|-7---------------|-11---------------|-12----------------|-14---------------|
D|-?---------------|-?----------------|-?-----------------|-?----------------|
A|-?---------------|-?----------------|-?-----------------|-?----------------|
E|-?---------------|-?----------------|-?-----------------|-?----------------|
 
e|-18--------------|-20b20,25---------|
B|-?---------------|-?----------------|
G|-15--------------|(17)--------------|
D|-?---------------|-?----------------|
A|-?---------------|-?----------------|
E|-?---------------|-?----------------|  

(singer: And as the darkness falls it fills up both my eyes
         My life before me like a flash in the night
         With my arms open wide)


[Solo]

Guitar 1 - Gmi F A# D 4?

Guitar 2
e|--------------------------|-------------------------------------|-----------------------|
B|-13b15--13b15r13p11-13b15-|-18b20-202020-16b18-18-9b11-11-13b15-|-12-121212-10-10-3-3-7-|
G|--------------------------|-------------------------------------|-----------------------|
D|--------------------------|-------------------------------------|-----------------------|
A|--------------------------|-------------------------------------|-----------------------|
E|--------------------------|-------------------------------------|-----------------------|


[Chorus 3] 

(same as Chorus 2)

Guitar 1 - Gmi F A# D (six times) 

Guitar 2
e|---10----------8----10---10-----|    
B|-----11------10---11-------10---|    
G|-12----12-(10)---------11----11-| 6?
D|--------------------------------|    
A|--------------------------------|   
E|--------------------------------|


[Outro]

Guitar 1 / Gmi

Guitar 2
e|--------------------------------|    
B|--------------------------------|    
G|-12\----------------------------| 
D|--------------------------------|    
A|--------------------------------|   
E|--------------------------------|            
Submit corrections


        Cold Cold Cold  lessons Hard to play? Try these video lessons and learn fast Cold Cold Cold  lessons
        
↑ Back to top | Tablatures and chords for acoustic guitar and electric guitar, ukulele, drums are parodies/interpretations of the original songs. You may use it for private study, scholarship, research or language learning purposes only