» » »

Cage The Elephant - Back Sbing Betty Tabs

Artists:  A B C D E F G H I J K L M N O P Q R S T U V W X Y Z # 

Back Sbing Betty Tabs

(ver. 1) Click to play this song!
Cage The Elephant
 Rating:
3.1/5 (29 votes)

 Back Sbing Betty  lessons Tabs too difficult? Try these video lessons and learn fast
 
                e|---------------------------------------------------------------------------|
B|---------------------------------------------------------------------------|
G|---------------------------------------------------------------------------|
D|---------------------------------------------------------------------------|
A|---------------------------------------------------------------------------|
E|-5-5-3-4h-5-5-3-4h-5-5-3-4h-5-5-8-9h---------------------------------------|

Lead Guitar Intro:
e|---------------------------------------------------------------------------|
B|---------------------------------------------------------------------------|
G|----------14fb------------14fb---------------------------------------------|
D|-13-12-14--------13-12-14--------------------------------------------------|
A|---------------------------------------------------------------------------|
E|---------------------------------------------------------------------------|

Rhythm Guitar: 
e|---------------------------------------------------------------------------|
B|---------------------------------------------------------------------------|
G|-9-9-9-9-9-9-9-9-8-8-8-7v-7-6-6--------------------------------------------|
D|---------------------------------------------------------------------------|
A|---------------------------------------------------------------------------|
E|---------------------------------------------------------------------------|

Lead Guitar:
e|---------------------------------------------------------------------------|
B|---------------------------------------------------------------------------|
G|-14-14-12v-14r-14-14-12v-14-14-12v-14r-14-14-12v---------------------------|
D|---------------------------------------------------------------------------|
A|---------------------------------------------------------------------------|
E|---------------------------------------------------------------------------|

Lead Guitar Bridge: 
e|---------------------------------------------------------------------------------|
B|---------------------------------------------------------------------------------|
G|-14br-14br-12r-14br-14br-10-10-9-7(x3)-14r-14br-12r-14r-14b-14b-14b-14b-14b-14b--|
D|---------------------------------------------------------------------------------|
A|---------------------------------------------------------------------------------|
E|---------------------------------------------------------------------------------|

e|-5v-5v-5\-3-5r-5v-5\-3(x3)-5v-5v-5\-3-5-5-5-5-5-5--------------------------|
B|-7v-7v-7\-5-7r-7v-7\-5-----7v-7v-7\-5-7-7-7-7-7-7--------------------------|
G|---------------------------------------------------------------------------|
D|---------------------------------------------------------------------------|
A|---------------------------------------------------------------------------|
E|---------------------------------------------------------------------------|

Lead Guitar:
e|---------------------------------------------------------------------------|
B|---------------------------------------------------------------------------|
G|-14-14-14-12-14r-14-14-12v-14r-14-12-14-14-14-12v-14r-14-12-14-14-14-12----|
D|---------------------------------------------------------------------------|
A|---------------------------------------------------------------------------|
E|---------------------------------------------------------------------------|

e|---------------------------------------------------------------------------|
B|---------------------------------------------------------------------------|
G|-9-9-9-9-9-9-9-9-8-8-8-7v-7-6-6--------------------------------------------|
D|---------------------------------------------------------------------------|
A|---------------------------------------------------------------------------|
E|---------------------------------------------------------------------------|

e|---------------------------------------------------------------------------------|
B|---------------------------------------------------------------------------------|
G|-14br-14br-12r-14br-14br-10-10-9-7(x3)-14r-14br-12r-14r-14b-14b-14b-14b-14b-14b--|
D|---------------------------------------------------------------------------------|
A|---------------------------------------------------------------------------------|
E|---------------------------------------------------------------------------------|

e|-5v-5v-5\-3-5r-5v-5\-3(x3)-5v-5v-5\-3-5-5-5-5-5-5--------------------------|
B|-7v-7v-7\-5-7r-7v-7\-5-----7v-7v-7\-5-7-7-7-7-7-7--------------------------|
G|---------------------------------------------------------------------------|
D|---------------------------------------------------------------------------|
A|---------------------------------------------------------------------------|
E|---------------------------------------------------------------------------|

            
Submit corrections


        Back Sbing Betty  lessons Hard to play? Try these video lessons and learn fast Back Sbing Betty  lessons
        
↑ Back to top | Tablatures and chords for acoustic guitar and electric guitar, ukulele, drums are parodies/interpretations of the original songs. You may use it for private study, scholarship, research or language learning purposes only