» » »

Cage The Elephant - Autumn Breeze Bass

Artists:  A B C D E F G H I J K L M N O P Q R S T U V W X Y Z # 

Autumn Breeze Bass

(ver. 1) Click to play this song!
Cage The Elephant
 Rating:
4.2/5 (5 votes)
    Autumn Breeze lessons Tabs too difficult? Try these video lessons and learn fast
                So this is a Perfect Confusion song but since they don't have them specifically cause 
well...they're Cage The Elephant now, this has to be put in Cage The Elephant's song selection.

So yeah...this is the bass tab. Figured it out since there was no tab for it. It's 
probably the most accurate tab (since it's the only one) and pretty easy to figure out. If 

Perfect Confusion/Cage The Elephant
Bass tab
Standard tuning


Intro
G|------------------------|	   |----------------------|
D|------------------------|	   |----------------------|
A|--000-000---------------| 	x7 |-000-000--------------|
E|-----3---1-3-1-003------|        |----3---1-3-1-003--5~-|

Verse 1
G|------------------------|
D|------------------------|
A|--000-000---------------| 	x9
E|-----3---1-3-1-003------|

Pre-Chorus
G|------------|    |------------------------|
D|------------|    |------------------------|
A|-0-0-0------| x2 |-0-0----------0-0-0-----|
E|--3-3--1-0~-|    |--3--1-3-1-0~--3-3-1-0~-|

Chorus-1st time
G|-----------------------------------------|
D|---------------------------7-5-----------|
A|-------7~---2------------------5-7~-5~---|
E|--5~---------0~----5-555-5---------------|

2nd time
G|----------7-7-------------------------------------------|
D|--------7-----7----------------------7-5----------------|
A|------5---------5---7~-2-----------------5---7~-----5~--|
E|--5~---------------------0~--5-555-5--------------------|

Verse 2
G|---------------------------|
D|---------------------------|
A|--000---000----------------| 	x7
E|------3-----1-3-1-003------|

Pre-Chorus
G|------------|    |---------------------|
D|------------|    |---------------------|
A|-0-0-0------| x2 |-0-0-------0-0-0-----|
E|--3-3--1-0~-|    |--3--1310~--3-3-1-0~-|


Chorus-1st time
G|---------7-7---------------------------------------|
D|-------7-----7----------------------7-5------------|
A|-----5---------5---7~--2----------------5--7~--5~--|
E|--5~--------------------0~--5-555-5----------------|

2nd time
G|--------------------------------------------------|
D|-------------------------------7-5----------------|
A|-----------7~----2----------------5---7~--5~------|
E|--5-555-5---------0~----5-5555--------------------|


Bass Solo
|-7-9-10~-12--9-----| |-------------1414-1414---------|
|--------------9--9-| |--------12-14---------14-12-10-|
|---------------7~--| |-12-1212-----------------------|
|-------------------| |-------------------------------|

|-------------1414-14--||-7-9-10~-12--9-----|
|--------12-14---------||--------------9--9-|
|-12-1212--------------||---------------7~--|
|----------------------||-------------------|

|-------------1414-1414---------||-------------1414-1414------|
|--------12-14---------14-12-10-||--------12-14----------14-12|
|-12-1212-----------------------||-12-1212--------------------|
|-------------------------------||----------------------------|

|----10-----10-9-----------|
|------10-------9----------|
|---------8~-----7~~-------|
|--------------------------|

Outro
G|------------------------|
D|------------------------|
A|--000-000---------------| 	x8
E|-----3----1-3-1-003-----|
            
Submit corrections

↑ Back to top | Tablatures and chords for acoustic guitar and electric guitar, ukulele, drums are parodies/interpretations of the original songs. You may use it for private study, scholarship, research or language learning purposes only