Home » C » Cactus »

Cactus - Alaska Bass

Artists:  A B C D E F G H I J K L M N O P Q R S T U V W X Y Z # 

Alaska Bass

(ver. 1) Click to play this song!
Cactus
[Verse 1-6]
 
G|-------------------------|-------------------------|-------------------------|-------------------------|
D|-------------------------|-------------------------|-------------------------|-------------------------|
A|------5---4---5---4------|-----5---4----5----4-----|-------------3-----4-----|------------6------7-----|
E|--5----------------------|-------------------------|------5------------------|-----5-------------------|
 
G|-------------------------|-------------------------|-------------------------|-------------------------|
D|-------------------------|-------------------------|-------------------------|-------------------------|
A|-----5---4----5----4-----|-----5---4----5----4-----|-------------------------|-------------------------|
E|-------------------------|-------------------------|---7-----7-----7----7----|---6-----6-----6----6----|
 
G|-------------------------|-------------------------|-------------------------|-------------------------|
D|-------------------------|-------------------------|-------------------------|-------------------------|
A|-------------------------|-------------------------|---5-----5-----5----5----|----8------8-------------|
E|---5-----3-----2-----0---|---5-----3-----2-----0---|-------------------------|----------------8----8---|
 
G|-------------------------|-------------------------|-------------------------|-------------------------|
D|-------------------------|---------3------2--------|-------------------------|-------------------------|
A|---------------------3---|---2---------------------|-------------------------|-------------------------| x5
E|---5-----3------2--------|---------------------4---|---5-----3-----2-----1---|-----------0-------------|
            
Submit corrections

↑ Back to top | Tablatures and chords for acoustic guitar and electric guitar, ukulele, drums are parodies/interpretations of the original songs. You may use it for private study, scholarship, research or language learning purposes only