Home » B » Byrds »

Byrds - Wild Mountain Thyme Chords

Artists:  A B C D E F G H I J K L M N O P Q R S T U V W X Y Z # 

Wild Mountain Thyme Chords

(ver. 1) Click to play this song!
Byrds
[Verse 1] 0:02 - 0:33
 
G|----------------------------------------------------------------------------------------------------|
D|--------------------------------------------5----4----2------------------------5----4--4----2--2-2--|
A|--5~-----5--5-5-----5--5-5-----5--5-5-5-----------------5--5-5-----5--5--5--------------------------|
E|----------------------------------------------------------------------------------------------------|
 
G|---------------------------------------------------------------------|
D|--2--2-------5-----4--4-----2--2-----------------4-------------------|
A|-------2-------------------------5--2--------2-2---5~-----1\5--5--5--|
E|------------------------------------------5--------------------------|
 
 
[Verse 2] 0:33 - 1:02
 
G|------------------------------------------------------------------------------------------------------|
D|-------------------------------------5----4----------------------------5----4--4----2--2-2----2--2-2--|
A|-----2-2--4-5--5-5-----5--5-5--5----------------5--5-5-----5--5--5------------------------------------|
E|--5---------------------------------------------------------------------------------------------------|
 
G|-----------------------------------------------------------------|
D|--5----4--4----2--2-2-2------------------------------------------|
A|------------------------5-2--------2--2----5--5-5-----5--5-5--5--|
E|--------------------------------5--------------------------------|
 
 
[Chorus 1] 1:02 - 1:25
 
G|-------------------------------------------------------------------------------------------------|
D|--5----4---------------------------4-5----4--4----2--2-2----2--2-2--2----5----4--4----2--2--2-4--|
A|-------------5--5-5----5--5-5----5---------------------------------------------------------------|
E|-------------------------------------------------------------------------------------------------|
 
G|---------------------------------------------------|
D|---------------------------------------------------|
A|--5----5------2-2----------5-5-5---5----5-5-5---5--|
E|---------5-5---------------------------------------|
 
 
[Solo] 1:25 - 1:53
 
G|----------------------------------------------------------------------------------------------------------|
D|-------------------------------------5-4--2---------------------------4-5----4--4----2--2-2----2--2-2--2--|
A|--5--5-5----5--5-5----5--5-5-5----5---------5--5-5----5-4-5--5-5----5-------------------------------------|
E|----------------------------------------------------------------------------------------------------------|
 
G|-----------------------------------------------------------------|
D|--5----4--4----2--2-2-2------------------------------------------|
A|------------------------5-2---------2-2---5-5----5-2-5----5-5-5--|
E|-------------------------------5-5-------------------------------|
 
 
[Chorus 2/Outro] 1:53 - 2:31
 
G|-----------------------------------------------------------------------------------------------------|
D|-----5-4-4--------------------------4-5----4--4----2--2-2----2--2-2-2----2-4-5----4--4----2-2-2------|
A|--5---------5--5-5----5-5----5-5--5-------------------------------------------------------------5-2--|
E|-----------------------------------------------------------------------------------------------------|
 
G|-------------------------------------------------------------------------------------|
D|--------------------------------------------4-----------5-4--------------------------|
A|-------2-2-2---5-5---5-5-5----1\5--5-5----5---5--5-5---------5--5-5----5--5-5-5--5~--|
E|--5-5--------------------------------------------------------------------------------|
            
Submit corrections

↑ Back to top | Tablatures and chords for acoustic guitar and electric guitar, ukulele, drums are parodies/interpretations of the original songs. You may use it for private study, scholarship, research or language learning purposes only