Home » B » Byrds »

Byrds - Turn Turn Turn Bass

Artists:  A B C D E F G H I J K L M N O P Q R S T U V W X Y Z # 

Turn Turn Turn Bass

(ver. 1) Click to play this song!
Byrds
Intro:
G|-7----------------7----------------7----------------7---------------|
D|----5--4--2--0-0-----5--4--2--0-4-----5--4--2--0-0-----5--4--2--0-4-|
A|--------------------------------------------------------------------|
E|--------------------------------------------------------------------|
 
Chorus:
G|-7-------------------7------------------------------------|
D|----5--4--2--2-2--2-----5--4--2--2-2--2---5--4--2--2-2--2-|
A|----------------------------------------------------------|
E|----------------------------------------------------------|
 
G|-----------------------------------|
D|-----------------------------------|
A|-5-5-5-5-5-5-5-5---5-5-5-5-5-5-5-5-|
E|-----------------------------------|
 
Verse 1:
G|-----------------------------------------------------------------|
D|-7-7-7-7-7-7-7-7-----------------7-7-7-7-7-7-7-7-----------------|
A|-----------------5-5-5-5-5-5-5-5-----------------5-5-5-5-5-5-5-5-|
E|-----------------------------------------------------------------|
 
                                                                    (Break)
G|------------------------------------------------------------------------|
D|-7-7-7-7-7-7-7-7-----------------5--5-4--4-2--2-2--2--------------------|
A|-----------------5-5-5-5-5-5-5-5---------------------5-5-5-5-5-5-5-5--5-|
E|------------------------------------------------------------------------|
 
Chorus:
G|-7-------------------7------------------------------------|
D|----5--4--2--2-2--2-----5--4--2--2-2--2---5--4--2--2-2--2-|
A|----------------------------------------------------------|
E|----------------------------------------------------------|
 
G|-----------------------------------|
D|-------------------------------4-5-|
A|-5-5-5-5-5-5-5-5---5-5-5-5-5-5-----|
E|-----------------------------------|
 
Verse 2:
G|-----------------------------------------------------------------|
D|-7-7-7-7-7-7-7-7-----------------7-7-7-7-7-7-7-7-----------------|
A|-----------------5-5-5-5-5-5-5-5-----------------5-5-5-5-5-5-5-5-|
E|-----------------------------------------------------------------|
 
                                                                    (Break)
G|------------------------------------------------------------------------|
D|-7-7-7-7-7-7-7-7-----------------5--5-4--4-2--2-2--2--------------------|
A|-----------------5-5-5-5-5-5-5-5---------------------5-5-5-5-5-5-5-5--5-|
E|------------------------------------------------------------------------|
 
Chorus:
G|-7-------------------7------------------------------------|
D|----5--4--2--2-2--2-----5--4--2--2-2--2---5--4--2--2-2--2-|
A|----------------------------------------------------------|
E|----------------------------------------------------------|
 
G|-----------------------------------|
D|-------------------------------4-5-|
A|-5-5-5-5-5-5-5-5---5-5-5-5-5-5-----|
E|-----------------------------------|
 
Verse 3:
G|-----------------------------------------------------------------|
D|-7-7-7-7-7-7-7-7-----------------7-7-7-7-7-7-7-7-----------------|
A|-----------------5-5-5-5-5-5-5-5-----------------5-5-5-5-5-5-5-5-|
E|-----------------------------------------------------------------|
 
                                                                    (Break)
G|------------------------------------------------------------------------|
D|-7-7-7-7-7-7-7-7-----------------5--5-4--4-2--2-2--2--------------------|
A|-----------------5-5-5-5-5-5-5-5---------------------5-5-5-5-5-5-5-5--5-|
E|------------------------------------------------------------------------|
 
Interlude:
G|-7-------------------7------------------------------------|
D|----5--4--2--2-2--2-----5--4--2--2-2--2---5--4--2--2-2--2-|
A|----------------------------------------------------------|
E|----------------------------------------------------------|
 
G|-----------------------------------|
D|-------------------------------4-5-|
A|-5-5-5-5-5-5-5-5---5-5-5-5-5-5-----|
E|-----------------------------------|
 
G|---------------------------------------------------------------|
D|-7--7-7------------4---7--7-7------------4-7--7-7------------4-|
A|--------7---5--5-5------------7---5--5-5----------7---5--5-5---|
E|---------------------------------------------------------------|
 
                                     (Break)
G|----------------------------------------|
D|-5--5-4--4-2--2-2--2--------------------|
A|---------------------5-5-5-5-5-5-5-5--5-|
E|----------------------------------------|
 
Chorus:
G|-7-------------------7------------------------------------|
D|----5--4--2--2-2--2-----5--4--2--2-2--2---5--4--2--2-2--2-|
A|----------------------------------------------------------|
E|----------------------------------------------------------|
 
G|-----------------------------------|
D|-------------------------------4-5-|
A|-5-5-5-5-5-5-5-5---5-5-5-5-5-5-----|
E|-----------------------------------|
 
Verse 4:
G|-----------------------------------------------------------------|
D|-7-7-7-7-7-7-7-7-----------------7-7-7-7-7-7-7-7-----------------|
A|-----------------5-5-5-5-5-5-5-5-----------------5-5-5-5-5-5-5-5-|
E|-----------------------------------------------------------------|
 
                                                                    (Break)
G|------------------------------------------------------------------------|
D|-7-7-7-7-7-7-7-7-----------------5--5-4--4-2--2-2--2--------------------|
A|-----------------5-5-5-5-5-5-5-5---------------------5-5-5-5-5-5-5-5--5-|
E|------------------------------------------------------------------------|
 
Outro:  (Repeat Outro To Fade/End)
G|-7----------------7----------------7----------------7---------------|
D|----5--4--2--0-0-----5--4--2--0-4-----5--4--2--0-0-----5--4--2--0-4-|
A|--------------------------------------------------------------------|
E|--------------------------------------------------------------------|
            
Submit corrections

↑ Back to top | Tablatures and chords for acoustic guitar and electric guitar, ukulele, drums are parodies/interpretations of the original songs. You may use it for private study, scholarship, research or language learning purposes only