Home » B » Byrds »

Byrds - Flight 713 Bass

Artists:  A B C D E F G H I J K L M N O P Q R S T U V W X Y Z # 

Flight 713 Bass

(ver. 1) Click to play this song!
Byrds
[Verse 1]
 
G|----------------------------------------------------------------------------------------------------------|
D|--7--7---5------------5-------7--7---9-7-5--------------------------------------5-------------------------|
A|-----------7-5-7---7-----------------------7---7-7--7\-------3--3-3--3-5---7--7---7-5-4---3--3-3---3-4-5--|
E|----------------------------------------------------------------------------------------------------------|
 
G|----------------------------------|
D|--------5-6-7--7-7-------7---7-7--|
A|--5-5--------------0---7---0-0-0--|
E|----------------------------------|
 
 
[Verse 2]
 
G|-------------------------------------------------------------------------------------------------------|
D|--------------7---5-7-5---------------5-6-------7--7---9-7-5----------------------------------5--------|
A|--5-6-7-----------------7-5-7---7-7--------------------------7--7-7-------3--3-3--5-6-7--7--7---7-5-4--|
E|-------------------------------------------------------------------------------------------------------|
 
G|--------------------------------------------------------------|
D|----------------------------5-6-7--7--7-7-------7--7-7-----7--|
A|--3--3-3-3-3-------5--5-5-----------------0---7----0-0---7----|
E|--------------------------------------------------------------|
 
 
[Chorus 1]
 
G|---------------------------------------------------------------------------------------------------------|
D|--5----4-4----2----4-4----2-4----5----4-4----2----4-4-------4-4---4-4---4-4---4-4---4-3------------------|
A|----------------------------------------------------------------------------------------7-7-7-7-7-7-7-7--|
E|---------------------------------------------------------------------------------------------------------|
 
G|-------------------------|
D|--------------------5-6--|
A|--7-7-7-7-7-7-7-7-7------|
E|-------------------------|
 
 
[Verse 3]
 
G|-----------------------------------------------------------------------------------------------------|
D|--7--7-7----x---------------------7--7---9--7--5-----------------------------5-----------------------|
A|--------------7--7----5-6-7----------------------7--7-7-------0-3--3-3---3-5---5-3-5-7-------3--3-3--|
E|-----------------------------------------------------------------------------------------------------|
 
G|--------------------------------------------|
D|--------------------5-6-7---7---7-7--7-7----|
A|--3-4-5----5-5-5----------0---0----------0--|
E|--------------------------------------------|
 
 
[Verse 4]
 
G|--------------------------------------------------------------------------------------------------------|
D|--------------7--7---9--7--5-------------------7--7-5---------------------------------------------------|
A|--5-6-7----------------------7--7--5-6-7---------------5-7--7-7-------5-3--3-3--3-5-7--7-7---5-3--3--3--|
E|--------------------------------------------------------------------------------------------------------|
 
G|----------------------------------------|
D|------------5-6-7---7---5---7--7-7---7--|
A|--5--5----7-------0---7---7--------7----|
E|----------------------------------------|
 
 
[Chorus 2]
 
G|---------------------------------------------------------------------------------------------------------|
D|--5----4-4----2----4-4----2-4----5----4-4----2----4-4-------4-4---4-4---4-4---4-4---4-3------------------|
A|----------------------------------------------------------------------------------------7-7-7-7-7-7-7-7--|
E|---------------------------------------------------------------------------------------------------------|
 
G|---------------------|
D|---------------------|
A|--7-7-7-7-7-7-7-7-7--|
E|---------------------|
 
 
[Verse 5]
 
G|----------------------------------------------------------------------------------------------------------|
D|--7--7-7----7----------------5-6-7--7-7---9--7--5--------------------------------5------------------------|
A|--------------5-7--7-------7----------------------7--7---5-7-3--3-3---3-5-7--7-7---7-5-4-3---3-3---3-4-5--|
E|----------------------------------------------------------------------------------------------------------|
 
G|---------------------------------|
D|------------5-6-7--7-7----5-7-7--|
A|--5-5--------------0-0--7---0-0--|
E|---------------------------------|
 
 
[Verse 6]
 
G|---------------------------------------------------------------------------------------------------------|
D|--------------7--7---5---------5-6-------7--7---9--7--5---------------------------------5----------------|
A|--5-6-7----------------5-7---7--------------------------7--7-7\-------3--3-3---3-5-7--7---7-5-4-3---3-3--|
E|---------------------------------------------------------------------------------------------------------|
 
G|------------------------------------------------|
D|----------------------5-6-7--7-7-----7-7-7---7--|
A|--3-4-5---5---5------------------0-7---0---7----|
E|------------------------------------------------|
 
 
[Chorus 3]
 
G|-----------------------------------------------------------------------------------------------------------|
D|--5----4-4----2----4-4----2-4----5----4-4----2----4-4-------4-4---4-4---4-4---4-4---4-3--------------------|
A|----------------------------------------------------------------------------------------7-7-7-7-7-7-7-7-7--|
E|-----------------------------------------------------------------------------------------------------------|
 
G|-------------------|
D|-------------------|
A|--7-7-7-7-7-7-7-7--|
E|-------------------|
 
 
[Verse 7/Outro]
 
G|-----------------------------------------------------------------------9-7----------------------------|
D|--7--7-------5------------5-6-7--7---9--7--5--------------5-------7--7-----10--9-7-------------7-5----|
A|---------------7--7--------------------------7---7--5-6-7--------------------------10---7-5-7------7--|
E|------------------------------------------------------------------------------------------------------|
 
G|----------------------------------------------------------------------------------------------------------|
D|--------5-----7--9-7-5-------7---5-7-5--------------------5-6-7----7-7--5--------------5-6-7--7--9-7-5----|
A|--5-6-7---7----------------------------7-5-5-6-7--7-----------------------7--7-7-----------------------7--|
E|----------------------------------------------------------------------------------------------------------|
            
Submit corrections

↑ Back to top | Tablatures and chords for acoustic guitar and electric guitar, ukulele, drums are parodies/interpretations of the original songs. You may use it for private study, scholarship, research or language learning purposes only