» » »

Buzzcocks - Whatever Happened To Tabs

Artists:  A B C D E F G H I J K L M N O P Q R S T U V W X Y Z # 

Whatever Happened To Tabs

(ver. 1) Click to play this song!
Buzzcocks
 Rating:
4.3/5 (9 votes)

 Whatever Happened To lessons Tabs too difficult? Try these video lessons and learn fast
 
                [Intro]
G|----------------|----------------|----------------|----------------|
D|----------------|----------------|----------------|----------------|
A|----0-0---0-0-0-|----0-0---0-0-0-|----0-0---0-0-0-|----0-0---0-0-0-|
E|1---------------|1---------------|1---------------|1---------------|

e|----------------|-----------------|
B|----------------|-----------------|
G|2---------------|2----------------|
D|3---------------|3----------------|
A|3---------------|3----------------|
E|1---------------|1----------------|
  F                F

e|----------------|----------------|----------------|----------------|
B|----2-2---2-2-2-|----2-2---2-2-2-|----2-2---2-2-2-|----2-2---2-2-2-|
G|2---2-2---2-2-2-|2---2-2---2-2-2-|2---2-2---2-2-2-|2---2-2---2-2-2-|
D|3---2-2---2-2-2-|3---2-2---2-2-2-|3---2-2---2-2-2-|3---2-2---2-2-2-|
A|3---0-0---0-0-0-|3---0-0---0-0-0-|3---0-0---0-0-0-|3---0-0---0-0-0-|
E|1---------------|1---------------|1---------------|1---------------|
  F   A            F   A            F   A            F   A

[Chorus]
e|----------------|----------------|----------------|----------------|
B|3-3-3-3-3-3-3-3-|5-5-5-5-5-5-5-5-|3-3-3-3-3-3-3-3-|5-5-5-5-5-5-5-5-|
G|3-3-3-3-3-3-3-3-|5-5-5-5-5-5-5-5-|3-3-3-3-3-3-3-3-|5-5-5-5-5-5-5-5-|
D|3-3-3-3-3-3-3-3-|5-5-5-5-5-5-5-5-|3-3-3-3-3-3-3-3-|5-5-5-5-5-5-5-5-|
A|1-1-1-1-1-1-1-1-|3-3-3-3-3-3-3-3-|1-1-1-1-1-1-1-1-|3-3-3-3-3-3-3-3-|
E|----------------|----------------|----------------|----------------|
  Bb               C                Bb               C

e|----------------|----------------|----------------|----------------|
B|3-3-3-3-3-3-3-3-|5-5-5-5-5-5-5-5-|3-3-3-3-3-3-3-3-|5-5-5-5-5-5-5-5-|
G|3-3-3-3-3-3-3-3-|5-5-5-5-5-5-5-5-|3-3-3-3-3-3-3-3-|5-5-5-5-5-5-5-5-|
D|3-3-3-3-3-3-3-3-|5-5-5-5-5-5-5-5-|3-3-3-3-3-3-3-3-|5-5-5-5-5-5-5-5-|
A|1-1-1-1-1-1-1-1-|3-3-3-3-3-3-3-3-|1-1-1-1-1-1-1-1-|3-3-3-3-3-3-3-3-|
E|----------------|----------------|----------------|----------------|
  Bb               C                Bb               C

e|----------------|----------------|----------------|----------------|
B|----2-2---2-2-2-|----2-2---2-2-2-|----2-2---2-2-2-|----2-2---2-2-2-|
G|2---2-2---2-2-2-|2---2-2---2-2-2-|2---2-2---2-2-2-|2---2-2---2-2-2-|
D|3---2-2---2-2-2-|3---2-2---2-2-2-|3---2-2---2-2-2-|3---2-2---2-2-2-|
A|3---0-0---0-0-0-|3---0-0---0-0-0-|3---0-0---0-0-0-|3---0-0---0-0-0-|
E|1---------------|1---------------|1---------------|1---------------|
  F   A            F   A            F   A            F   A

[Verse]
e|----------------|----------------|----------------|----------------|
B|3-3-3-3-3-3-3-3-|6-6-6-6-6-6-6-6-|----2-2---2-2-2-|----2-2---2-2-2-|
G|3-3-3-3-3-3-3-3-|6-6-6-6-6-6-6-6-|2---2-2---2-2-2-|2---2-2---2-2-2-|
D|3-3-3-3-3-3-3-3-|6-6-6-6-6-6-6-6-|3---2-2---2-2-2-|3---2-2---2-2-2-|
A|1-1-1-1-1-1-1-1-|4-4-4-4-4-4-4-4-|3---0-0---0-0-0-|3---0-0---0-0-0-|
E|----------------|----------------|1---------------|1---------------|
  Bb               C#               F   A            F   A

e|----------------|----------------|----------------|----------------|
B|8-8-8-8-8-8-8-8-|7-7-7-7-7-7-7-7-|5---------------|--------5---4---|
G|8-8-8-8-8-8-8-8-|7-7-7-7-7-7-7-7-|5---------------|--------5---4---|
D|8-8-8-8-8-8-8-8-|7-7-7-7-7-7-7-7-|5---------------|--------5---4---|
A|6-6-6-6-6-6-6-6-|5-5-5-5-5-5-5-5-|3---------------|--------3---2---|
E|----------------|----------------|----------------|----------------|
  Eb               D                C                        C   B

[Chorus]
e|----------------|----------------|----------------|----------------|
B|3-3-3-3-3-3-3-3-|5-5-5-5-5-5-5-5-|3-3-3-3-3-3-3-3-|5-5-5-5-5-5-5-5-|
G|3-3-3-3-3-3-3-3-|5-5-5-5-5-5-5-5-|3-3-3-3-3-3-3-3-|5-5-5-5-5-5-5-5-|
D|3-3-3-3-3-3-3-3-|5-5-5-5-5-5-5-5-|3-3-3-3-3-3-3-3-|5-5-5-5-5-5-5-5-|
A|1-1-1-1-1-1-1-1-|3-3-3-3-3-3-3-3-|1-1-1-1-1-1-1-1-|3-3-3-3-3-3-3-3-|
E|----------------|----------------|----------------|----------------|
  Bb               C                Bb               C

e|----------------|----------------|----------------|----------------|
B|3-3-3-3-3-3-3-3-|5-5-5-5-5-5-5-5-|3-3-3-3-3-3-3-3-|5-5-5-5-5-5-5-5-|
G|3-3-3-3-3-3-3-3-|5-5-5-5-5-5-5-5-|3-3-3-3-3-3-3-3-|5-5-5-5-5-5-5-5-|
D|3-3-3-3-3-3-3-3-|5-5-5-5-5-5-5-5-|3-3-3-3-3-3-3-3-|5-5-5-5-5-5-5-5-|
A|1-1-1-1-1-1-1-1-|3-3-3-3-3-3-3-3-|1-1-1-1-1-1-1-1-|3-3-3-3-3-3-3-3-|
E|----------------|----------------|----------------|----------------|
  Bb               C                Bb               C

e|----------------|----------------|----------------|----------------|
B|----2-2---2-2-2-|----2-2---2-2-2-|----2-2---2-2-2-|----2-2---2-2-2-|
G|2---2-2---2-2-2-|2---2-2---2-2-2-|2---2-2---2-2-2-|2---2-2---2-2-2-|
D|3---2-2---2-2-2-|3---2-2---2-2-2-|3---2-2---2-2-2-|3---2-2---2-2-2-|
A|3---0-0---0-0-0-|3---0-0---0-0-0-|3---0-0---0-0-0-|3---0-0---0-0-0-|
E|1---------------|1---------------|1---------------|1---------------|
  F   A            F   A            F   A            F   A

[Verse]
e|----------------|----------------|----------------|----------------|
B|3-3-3-3-3-3-3-3-|6-6-6-6-6-6-6-6-|----2-2---2-2-2-|----2-2---2-2-2-|
G|3-3-3-3-3-3-3-3-|6-6-6-6-6-6-6-6-|2---2-2---2-2-2-|2---2-2---2-2-2-|
D|3-3-3-3-3-3-3-3-|6-6-6-6-6-6-6-6-|3---2-2---2-2-2-|3---2-2---2-2-2-|
A|1-1-1-1-1-1-1-1-|4-4-4-4-4-4-4-4-|3---0-0---0-0-0-|3---0-0---0-0-0-|
E|----------------|----------------|1---------------|1---------------|
  Bb               C#               F   A            F   A

e|----------------|----------------|----------------|----------------|
B|8-8-8-8-8-8-8-8-|7-7-7-7-7-7-7-7-|5---------------|----------------|
G|8-8-8-8-8-8-8-8-|7-7-7-7-7-7-7-7-|5---------------|----------------|
D|8-8-8-8-8-8-8-8-|7-7-7-7-7-7-7-7-|5---------------|----------------|
A|6-6-6-6-6-6-6-6-|5-5-5-5-5-5-5-5-|3---------------|----------------|
E|----------------|----------------|----------------|----------------|
  Eb               D                C                        

[Middle]
e|------------------------|------------------------|---------------------------|------------------------|
B|10-10-10-10-10-10-10-10-|10-10-10-10-10-10-10-10-|10-10-10-10-10-10-10-10-10-|10-10-10-10-10-10-10-10-|
G|10-10-10-10-10-10-10-10-|10-10-10-10-10-10-10-10-|10-10-10-10-10-10-10-10-10-|10-10-10-10-10-10-10-10-|
D|10-10-10-10-10-10-10-10-|10-10-10-10-10-10-10-10-|10-10-10-10-10-10-10-10-10-|10-10-10-10-10-10-10-10-|
A|-8--8--8--8--8--8--8--8-|-8--8--8--8--8--8--8--8-|-8--8--8--8--8--8--8--8--8-|-8--8--8--8--8--8--8--8-|
E|------------------------|------------------------|---------------------------|------------------------|
  F

e|------------------------|------------------------|---------------------------|------------------------|
B|10-10-10-10-10-10-10-10-|10-10-10-10-10-10-10-10-|10-10-10-10-10-10-10-10-10-|10-10-10-10-10-10-10-10-|
G|10-10-10-10-10-10-10-10-|10-10-10-10-10-10-10-10-|10-10-10-10-10-10-10-10-10-|10-10-10-10-10-10-10-10-|
D|10-10-10-10-10-10-10-10-|10-10-10-10-10-10-10-10-|10-10-10-10-10-10-10-10-10-|10-10-10-10-10-10-10-10-|
A|-8--8--8--8--8--8--8--8-|-8--8--8--8--8--8--8--8-|-8--8--8--8--8--8--8--8--8-|-8--8--8--8--8--8--8--8-|
E|------------------------|------------------------|---------------------------|------------------------|
  F

e|----------------|----------------|----------------|----------------|
B|----2-2---2-2-2-|----2-2---2-2-2-|----2-2---2-2-2-|----2-2---2-2-2-|
G|2---2-2---2-2-2-|2---2-2---2-2-2-|2---2-2---2-2-2-|2---2-2---2-2-2-|
D|3---2-2---2-2-2-|3---2-2---2-2-2-|3---2-2---2-2-2-|3---2-2---2-2-2-|
A|3---0-0---0-0-0-|3---0-0---0-0-0-|3---0-0---0-0-0-|3---0-0---0-0-0-|
E|1---------------|1---------------|1---------------|1---------------|
  F   A            F   A            F   A            F   A

[Chorus]
e|----------------|----------------|----------------|----------------|
B|3-3-3-3-3-3-3-3-|5-5-5-5-5-5-5-5-|3-3-3-3-3-3-3-3-|5-5-5-5-5-5-5-5-|
G|3-3-3-3-3-3-3-3-|5-5-5-5-5-5-5-5-|3-3-3-3-3-3-3-3-|5-5-5-5-5-5-5-5-|
D|3-3-3-3-3-3-3-3-|5-5-5-5-5-5-5-5-|3-3-3-3-3-3-3-3-|5-5-5-5-5-5-5-5-|
A|1-1-1-1-1-1-1-1-|3-3-3-3-3-3-3-3-|1-1-1-1-1-1-1-1-|3-3-3-3-3-3-3-3-|
E|----------------|----------------|----------------|----------------|
  Bb               C                Bb               C

e|----------------|----------------|----------------|----------------|
B|3-3-3-3-3-3-3-3-|5-5-5-5-5-5-5-5-|3-3-3-3-3-3-3-3-|5-5-5-5-5-5-5-5-|
G|3-3-3-3-3-3-3-3-|5-5-5-5-5-5-5-5-|3-3-3-3-3-3-3-3-|5-5-5-5-5-5-5-5-|
D|3-3-3-3-3-3-3-3-|5-5-5-5-5-5-5-5-|3-3-3-3-3-3-3-3-|5-5-5-5-5-5-5-5-|
A|1-1-1-1-1-1-1-1-|3-3-3-3-3-3-3-3-|1-1-1-1-1-1-1-1-|3-3-3-3-3-3-3-3-|
E|----------------|----------------|----------------|----------------|
  Bb               C                Bb               C

e|----------------|----------------|----------------|----------------|
B|----2-2---2-2-2-|----2-2---2-2-2-|----2-2---2-2-2-|----2-2---2-2-2-|
G|2---2-2---2-2-2-|2---2-2---2-2-2-|2---2-2---2-2-2-|2---2-2---2-2-2-|
D|3---2-2---2-2-2-|3---2-2---2-2-2-|3---2-2---2-2-2-|3---2-2---2-2-2-|
A|3---0-0---0-0-0-|3---0-0---0-0-0-|3---0-0---0-0-0-|3---0-0---0-0-0-|
E|1---------------|1---------------|1---------------|1---------------|
  F   A            F   A            F   A            F   A

[Verse]
e|----------------|----------------|----------------|----------------|
B|3-3-3-3-3-3-3-3-|6-6-6-6-6-6-6-6-|----2-2---2-2-2-|----2-2---2-2-2-|
G|3-3-3-3-3-3-3-3-|6-6-6-6-6-6-6-6-|2---2-2---2-2-2-|2---2-2---2-2-2-|
D|3-3-3-3-3-3-3-3-|6-6-6-6-6-6-6-6-|3---2-2---2-2-2-|3---2-2---2-2-2-|
A|1-1-1-1-1-1-1-1-|4-4-4-4-4-4-4-4-|3---0-0---0-0-0-|3---0-0---0-0-0-|
E|----------------|----------------|1---------------|1---------------|
  Bb               C#               F   A            F   A

e|----------------|----------------|----------------|----------------|
B|8-8-8-8-8-8-8-8-|7-7-7-7-7-7-7-7-|5---------------|----------------|
G|8-8-8-8-8-8-8-8-|7-7-7-7-7-7-7-7-|5---------------|----------------|
D|8-8-8-8-8-8-8-8-|7-7-7-7-7-7-7-7-|5---------------|----------------|
A|6-6-6-6-6-6-6-6-|5-5-5-5-5-5-5-5-|3---------------|----------------|
E|----------------|----------------|----------------|----------------|
  Eb               D                C 

[Outro]
e|------------------------|------------------------|---------------------------|------------------------|
B|10-10-10-10-10-10-10-10-|10-10-10-10-10-10-10-10-|10-10-10-10-10-10-10-10-10-|10-10-10-10-10-10-10-10-|
G|10-10-10-10-10-10-10-10-|10-10-10-10-10-10-10-10-|10-10-10-10-10-10-10-10-10-|10-10-10-10-10-10-10-10-|
D|10-10-10-10-10-10-10-10-|10-10-10-10-10-10-10-10-|10-10-10-10-10-10-10-10-10-|10-10-10-10-10-10-10-10-|
A|-8--8--8--8--8--8--8--8-|-8--8--8--8--8--8--8--8-|-8--8--8--8--8--8--8--8--8-|-8--8--8--8--8--8--8--8-|
E|------------------------|------------------------|---------------------------|------------------------|
  F
e|------------------------|------------------------|---------------------------|------------------------|
B|10-10-10-10-10-10-10-10-|10-10-10-10-10-10-10-10-|10-10-10-10-10-10-10-10-10-|10-10-10-10-10-10-10-10-|
G|10-10-10-10-10-10-10-10-|10-10-10-10-10-10-10-10-|10-10-10-10-10-10-10-10-10-|10-10-10-10-10-10-10-10-|
D|10-10-10-10-10-10-10-10-|10-10-10-10-10-10-10-10-|10-10-10-10-10-10-10-10-10-|10-10-10-10-10-10-10-10-|
A|-8--8--8--8--8--8--8--8-|-8--8--8--8--8--8--8--8-|-8--8--8--8--8--8--8--8--8-|-8--8--8--8--8--8--8--8-|
E|------------------------|------------------------|---------------------------|------------------------|
  F

e|----------------|----------------|----------------|----------------|
B|----2-2---2-2-2-|----2-2---2-2-2-|----2-2---2-2-2-|----2-2---2-2-2-|
G|2---2-2---2-2-2-|2---2-2---2-2-2-|2---2-2---2-2-2-|2---2-2---2-2-2-|
D|3---2-2---2-2-2-|3---2-2---2-2-2-|3---2-2---2-2-2-|3---2-2---2-2-2-|
A|3---0-0---0-0-0-|3---0-0---0-0-0-|3---0-0---0-0-0-|3---0-0---0-0-0-|
E|1---------------|1---------------|1---------------|1---------------|
  F   A            F   A            F   A            F   A

e|----------------|----------------|----------------|----------------|
B|----2-2---2-2-2-|----2-2---2-2-2-|----2-2---2-2-2-|----2-2---2-2-2-|
G|2---2-2---2-2-2-|2---2-2---2-2-2-|2---2-2---2-2-2-|2---2-2---2-2-2-|
D|3---2-2---2-2-2-|3---2-2---2-2-2-|3---2-2---2-2-2-|3---2-2---2-2-2-|
A|3---0-0---0-0-0-|3---0-0---0-0-0-|3---0-0---0-0-0-|3---0-0---0-0-0-|
E|1---------------|1---------------|1---------------|1---------------|
  F   A            F   A            F   A            F   A

e|-----------------|
B|-----------------|
G|2----------------|
D|3----------------|
A|3----------------|
E|1----------------|
  F            
Submit corrections


        Whatever Happened To lessons Hard to play? Try these video lessons and learn fast Whatever Happened To lessons
        
↑ Back to top | Tablatures and chords for acoustic guitar and electric guitar, ukulele, drums are parodies/interpretations of the original songs. You may use it for private study, scholarship, research or language learning purposes only