» » »

Buzzcocks - I Need Tabs

Artists:  A B C D E F G H I J K L M N O P Q R S T U V W X Y Z # 

I Need Tabs

(ver. 1) Click to play this song!
Buzzcocks
 Rating:
4.3/5 (29 votes)

 I Need lessons Tabs too difficult? Try these video lessons and learn fast
 
                [Intro]
e|----------------|-----------------|----------------|-----------------|
B|----------------|-----------------|----------------|-----------------|
G|14---------14---|14---------------|14---------14---|14---------------|
D|15---------15---|15---------------|15---------15---|15---------------|
A|15---------15---|15---------------|15---------15---|15---------------|
E|13---------13---|13---------------|13---------13---|13---------------|
  F

e|------------------------|------------------------|------------------------|------------------------|
B|------15-15-------15-15-|------15----------------|------15-15-------15-15-|------15----------------|
G|14-14-15-15-14-14-15-15-|14-14-15-14----14-14-14-|14-14-15-15-14-14-15-15-|14-14-15-14----14-14-14-|
D|15-15-15-15-15-15-15-15-|15-15-15-15----15-15-15-|15-15-15-15-15-15-15-15-|15-15-15-15----15-15-15-|
A|15-15-13-13-15-15-13-13-|15-15-13-15----15-15-15-|15-15-13-13-15-15-13-13-|15-15-13-15----15-15-15-|
E|13-13-------13-13-------|13-13----13----13-13-13-|13-13-------13-13-------|13-13----13----13-13-13-|
  F     Bb    F     Bb     F     Bb  F                    Bb    F     Bb     F     Bb  F    

[Verse 1]
e|------------------------|------------------------|------------------------|------------------------|
B|------15-15-------15-15-|------15----------------|------15-15-------15-15-|------15----------------|
G|14-14-15-15-14-14-15-15-|14-14-15-14----14-14-14-|14-14-15-15-14-14-15-15-|14-14-15-14----14-14-14-|
D|15-15-15-15-15-15-15-15-|15-15-15-15----15-15-15-|15-15-15-15-15-15-15-15-|15-15-15-15----15-15-15-|
A|15-15-13-13-15-15-13-13-|15-15-13-15----15-15-15-|15-15-13-13-15-15-13-13-|15-15-13-15----15-15-15-|
E|13-13-------13-13-------|13-13----13----13-13-13-|13-13-------13-13-------|13-13----13----13-13-13-|
  F     Bb    F     Bb     F     Bb  F                    Bb    F     Bb     F     Bb  F    

e|------------------------|------------------------|------------------------|------------------------|
B|------------------------|------------------------|------15-15-------15-15-|------15----------------|
G|-9--9--9--9--9--9--9--9-|12-12-12-12-12-12-12-12-|14-14-15-15-14-14-15-15-|14-14-15-15----14-14-14-|
D|10-10-10-10-10-10-10-10-|13-13-13-13-13-13-13-13-|15-15-15-15-15-15-15-15-|15-15-15-15----15-15-15-|
A|10-10-10-10-10-10-10-10-|13-13-13-13-13-13-13-13-|15-15-13-13-15-15-13-13-|15-15-13-13----15-15-15-|
E|-8---8---8---8---8---8--|11-11-11-11-11-11-11-11-|13-13-------13-13-------|13-13------`---13-13-13-|
  C                        D#                       F     Bb    F     Bb     F     Bb  F     

e|------------------------|------------------------|------------------------|------------------------|
B|------15-15-------15-15-|------15----------------|------15-15-------15-15-|------15----------------|
G|14-14-15-15-14-14-15-15-|14-14-15-14----14-14-14-|14-14-15-15-14-14-15-15-|14-14-15-14----14-14-14-|
D|15-15-15-15-15-15-15-15-|15-15-15-15----15-15-15-|15-15-15-15-15-15-15-15-|15-15-15-15----15-15-15-|
A|15-15-13-13-15-15-13-13-|15-15-13-15----15-15-15-|15-15-13-13-15-15-13-13-|15-15-13-15----15-15-15-|
E|13-13-------13-13-------|13-13----13----13-13-13-|13-13-------13-13-------|13-13----13----13-13-13-|
  F     Bb    F     Bb     F     Bb  F                    Bb    F     Bb     F     Bb  F    

e|------------------------|------------------------|------------------------|------------------------|
B|------------------------|------------------------|------15-15-------15-15-|------15----------------|
G|-9--9--9--9--9--9--9--9-|12-12-12-12-12-12-12-12-|14-14-15-15-14-14-15-15-|14-14-15-15----14-14-14-|
D|10-10-10-10-10-10-10-10-|13-13-13-13-13-13-13-13-|15-15-15-15-15-15-15-15-|15-15-15-15----15-15-15-|
A|10-10-10-10-10-10-10-10-|13-13-13-13-13-13-13-13-|15-15-13-13-15-15-13-13-|15-15-13-13----15-15-15-|
E|-8---8---8---8---8---8--|11-11-11-11-11-11-11-11-|13-13-------13-13-------|13-13------`---13-13-13-|
  C                        D#                       F     Bb    F     Bb     F     Bb  F     

[Chorus]
e|------------------------|------------------------|------------------------|------------------------|
B|------------------------|------------------------|------------------------|------------------------|
G|7--------7--7------7----|-9-------9-9------9-----|3-------3--3-------3----|7--------7--7----7------|
D|8--------8--8------8----|10------10-10----10-----|5-------5--5-------5----|8--------8--8----8------|
A|8--------8--8------8----|10------10-10----10-----|5-------5--5-------5----|8--------8--8----8------|
E|6--------6--6------6----|-8-------8--8-----8-----|3-------3--3-------3----|6--------6--6----6------|
  Bb                       C                        Gm                       Bb

e|------------------------|------------------------|------------------------|------------------------|
B|------------------------|------------------------|------------------------|------------------------|
G|7--------7--7------7----|-9-------9-9------9-----|3-------3--3-------3----|-9--9--9--9--9--9--9--9-|
D|8--------8--8------8----|10------10-10----10-----|5-------5--5-------5----|10-10-10-10-10-10-10-10-|
A|8--------8--8------8----|10------10-10----10-----|5-------5--5-------5----|10-10-10-10-10-10-10-10-|
E|6--------6--6------6----|-8-------8--8-----8-----|3-------3--3-------3----|-8--8--8--8--8--8--8--8-|
  Bb                       C                        Gm                       C

e|------------------------|
B|------------------------|
G|-9--9--9--9--9--9--9--9-|
D|10-10-10-10-10-10-10-10-|
A|10-10-10-10-10-10-10-10-|
E|-8--8--8--8--8--8--8--8-|
  C

[Verse 2]
e|------------------------|------------------------|------------------------|------------------------|
B|------15-15-------15-15-|------15----------------|------15-15-------15-15-|------15----------------|
G|14-14-15-15-14-14-15-15-|14-14-15-14----14-14-14-|14-14-15-15-14-14-15-15-|14-14-15-14----14-14-14-|
D|15-15-15-15-15-15-15-15-|15-15-15-15----15-15-15-|15-15-15-15-15-15-15-15-|15-15-15-15----15-15-15-|
A|15-15-13-13-15-15-13-13-|15-15-13-15----15-15-15-|15-15-13-13-15-15-13-13-|15-15-13-15----15-15-15-|
E|13-13-------13-13-------|13-13----13----13-13-13-|13-13-------13-13-------|13-13----13----13-13-13-|
  F     Bb    F     Bb     F     Bb  F                    Bb    F     Bb     F     Bb  F    

e|------------------------|------------------------|------------------------|------------------------|
B|------------------------|------------------------|------15-15-------15-15-|------15----------------|
G|-9--9--9--9--9--9--9--9-|12-12-12-12-12-12-12-12-|14-14-15-15-14-14-15-15-|14-14-15-15----14-14-14-|
D|10-10-10-10-10-10-10-10-|13-13-13-13-13-13-13-13-|15-15-15-15-15-15-15-15-|15-15-15-15----15-15-15-|
A|10-10-10-10-10-10-10-10-|13-13-13-13-13-13-13-13-|15-15-13-13-15-15-13-13-|15-15-13-13----15-15-15-|
E|-8---8---8---8---8---8--|11-11-11-11-11-11-11-11-|13-13-------13-13-------|13-13------`---13-13-13-|
  C                        D#                       F     Bb    F     Bb     F     Bb  F     

e|------------------------|------------------------|------------------------|------------------------|
B|------15-15-------15-15-|------15----------------|------15-15-------15-15-|------15----------------|
G|14-14-15-15-14-14-15-15-|14-14-15-14----14-14-14-|14-14-15-15-14-14-15-15-|14-14-15-14----14-14-14-|
D|15-15-15-15-15-15-15-15-|15-15-15-15----15-15-15-|15-15-15-15-15-15-15-15-|15-15-15-15----15-15-15-|
A|15-15-13-13-15-15-13-13-|15-15-13-15----15-15-15-|15-15-13-13-15-15-13-13-|15-15-13-15----15-15-15-|
E|13-13-------13-13-------|13-13----13----13-13-13-|13-13-------13-13-------|13-13----13----13-13-13-|
  F     Bb    F     Bb     F     Bb  F                    Bb    F     Bb     F     Bb  F    

e|------------------------|------------------------|------------------------|------------------------|
B|------------------------|------------------------|------15-15-------15-15-|------15----------------|
G|-9--9--9--9--9--9--9--9-|12-12-12-12-12-12-12-12-|14-14-15-15-14-14-15-15-|14-14-15-15----14-14-14-|
D|10-10-10-10-10-10-10-10-|13-13-13-13-13-13-13-13-|15-15-15-15-15-15-15-15-|15-15-15-15----15-15-15-|
A|10-10-10-10-10-10-10-10-|13-13-13-13-13-13-13-13-|15-15-13-13-15-15-13-13-|15-15-13-13----15-15-15-|
E|-8---8---8---8---8---8--|11-11-11-11-11-11-11-11-|13-13-------13-13-------|13-13------`---13-13-13-|
  C                        D#                       F     Bb    F     Bb     F     Bb  F     

[Chorus]
e|------------------------|------------------------|------------------------|------------------------|
B|------------------------|------------------------|------------------------|------------------------|
G|7--------7--7------7----|-9-------9-9------9-----|3-------3--3-------3----|7--------7--7----7------|
D|8--------8--8------8----|10------10-10----10-----|5-------5--5-------5----|8--------8--8----8------|
A|8--------8--8------8----|10------10-10----10-----|5-------5--5-------5----|8--------8--8----8------|
E|6--------6--6------6----|-8-------8--8-----8-----|3-------3--3-------3----|6--------6--6----6------|
  Bb                       C                        Gm                       Bb

e|------------------------|------------------------|------------------------|------------------------|
B|------------------------|------------------------|------------------------|------------------------|
G|7--------7--7------7----|-9-------9-9------9-----|3-------3--3-------3----|-9--9--9--9--9--9--9--9-|
D|8--------8--8------8----|10------10-10----10-----|5-------5--5-------5----|10-10-10-10-10-10-10-10-|
A|8--------8--8------8----|10------10-10----10-----|5-------5--5-------5----|10-10-10-10-10-10-10-10-|
E|6--------6--6------6----|-8-------8--8-----8-----|3-------3--3-------3----|-8--8--8--8--8--8--8--8-|
  Bb                       C                        Gm                       C

e|------------------------|
B|------------------------|
G|-9--9--9--9--9--9--9--9-|
D|10-10-10-10-10-10-10-10-|
A|10-10-10-10-10-10-10-10-|
E|-8--8--8--8--8--8--8--8-|
  C

[Verse 3]
e|------------------------|------------------------|------------------------|------------------------|
B|------15-15-------15-15-|------15----------------|------15-15-------15-15-|------15----------------|
G|14-14-15-15-14-14-15-15-|14-14-15-14----14-14-14-|14-14-15-15-14-14-15-15-|14-14-15-14----14-14-14-|
D|15-15-15-15-15-15-15-15-|15-15-15-15----15-15-15-|15-15-15-15-15-15-15-15-|15-15-15-15----15-15-15-|
A|15-15-13-13-15-15-13-13-|15-15-13-15----15-15-15-|15-15-13-13-15-15-13-13-|15-15-13-15----15-15-15-|
E|13-13-------13-13-------|13-13----13----13-13-13-|13-13-------13-13-------|13-13----13----13-13-13-|
  F     Bb    F     Bb     F     Bb  F                    Bb    F     Bb     F     Bb  F    

e|------------------------|------------------------|------------------------|------------------------|
B|------------------------|------------------------|------15-15-------15-15-|------15----------------|
G|-9--9--9--9--9--9--9--9-|12-12-12-12-12-12-12-12-|14-14-15-15-14-14-15-15-|14-14-15-15----14-14-14-|
D|10-10-10-10-10-10-10-10-|13-13-13-13-13-13-13-13-|15-15-15-15-15-15-15-15-|15-15-15-15----15-15-15-|
A|10-10-10-10-10-10-10-10-|13-13-13-13-13-13-13-13-|15-15-13-13-15-15-13-13-|15-15-13-13----15-15-15-|
E|-8---8---8---8---8---8--|11-11-11-11-11-11-11-11-|13-13-------13-13-------|13-13------`---13-13-13-|
  C                        D#                       F     Bb    F     Bb     F     Bb  F     

e|------------------------|------------------------|------------------------|------------------------|
B|------15-15-------15-15-|------15----------------|------15-15-------15-15-|------15----------------|
G|14-14-15-15-14-14-15-15-|14-14-15-14----14-14-14-|14-14-15-15-14-14-15-15-|14-14-15-14----14-14-14-|
D|15-15-15-15-15-15-15-15-|15-15-15-15----15-15-15-|15-15-15-15-15-15-15-15-|15-15-15-15----15-15-15-|
A|15-15-13-13-15-15-13-13-|15-15-13-15----15-15-15-|15-15-13-13-15-15-13-13-|15-15-13-15----15-15-15-|
E|13-13-------13-13-------|13-13----13----13-13-13-|13-13-------13-13-------|13-13----13----13-13-13-|
  F     Bb    F     Bb     F     Bb  F                    Bb    F     Bb     F     Bb  F    

e|------------------------|------------------------|------------------------|------------------------|
B|------------------------|------------------------|------15-15-------15-15-|------15----------------|
G|-9--9--9--9--9--9--9--9-|12-12-12-12-12-12-12-12-|14-14-15-15-14-14-15-15-|14-14-15-15----14-14-14-|
D|10-10-10-10-10-10-10-10-|13-13-13-13-13-13-13-13-|15-15-15-15-15-15-15-15-|15-15-15-15----15-15-15-|
A|10-10-10-10-10-10-10-10-|13-13-13-13-13-13-13-13-|15-15-13-13-15-15-13-13-|15-15-13-13----15-15-15-|
E|-8---8---8---8---8---8--|11-11-11-11-11-11-11-11-|13-13-------13-13-------|13-13------`---13-13-13-|
  C                        D#                       F     Bb    F     Bb     F     Bb  F   

[Chorus]
e|------------------------|------------------------|------------------------|------------------------|
B|------------------------|------------------------|------------------------|------------------------|
G|7--------7--7------7----|-9-------9-9------9-----|3-------3--3-------3----|7--------7--7----7------|
D|8--------8--8------8----|10------10-10----10-----|5-------5--5-------5----|8--------8--8----8------|
A|8--------8--8------8----|10------10-10----10-----|5-------5--5-------5----|8--------8--8----8------|
E|6--------6--6------6----|-8-------8--8-----8-----|3-------3--3-------3----|6--------6--6----6------|
  Bb                       C                        Gm                       Bb

e|------------------------|------------------------|------------------------|------------------------|
B|------------------------|------------------------|------------------------|------------------------|
G|7--------7--7------7----|-9-------9-9------9-----|3-------3--3-------3----|-9--9--9--9--9--9--9--9-|
D|8--------8--8------8----|10------10-10----10-----|5-------5--5-------5----|10-10-10-10-10-10-10-10-|
A|8--------8--8------8----|10------10-10----10-----|5-------5--5-------5----|10-10-10-10-10-10-10-10-|
E|6--------6--6------6----|-8-------8--8-----8-----|3-------3--3-------3----|-8--8--8--8--8--8--8--8-|
  Bb                       C                        Gm                       C

e|------------------------|
B|------------------------|
G|-9--9--9--9--9--9--9--9-|
D|10-10-10-10-10-10-10-10-|
A|10-10-10-10-10-10-10-10-|
E|-8--8--8--8--8--8--8--8-|
  C

[Bass Solo]
e|------------------------|------------------------|------------------------|------------------------|
B|10-10-10-10--8--8--8--8-|10-10-10-10--8--8--8--8-|10-10-10-10--8--8--8--8-|10-10-10-10--8--8--8--8-|
G|10-10-10-10--8--8--8--8-|10-10-10-10--8--8--8--8-|10-10-10-10--8--8--8--8-|10-10-10-10--8--8--8--8-|
D|10-10-10-10--8--8--8--8-|10-10-10-10--8--8--8--8-|10-10-10-10--8--8--8--8-|10-10-10-10--8--8--8--8-|
A|-8--8--8--8--6--6--6--6-|-8-8-8-8--8--6--6--6--6-|-8--8--8--8--6--6--6--6-|-8--8--8--8--6--6--6--6-|
E|------------------------|------------------------|------------------------|------------------------|
  F            Eb          F            Eb          F            Eb          F            Eb

e|------------------------|------------------------|------------------------|------------------------|
B|10-10-10-10--8--8--8--8-|10-10-10-10--8--8--8--8-|10-10-10-10--8--8--8--8-|10-10-10-10--8--8--8--8-|
G|10-10-10-10--8--8--8--8-|10-10-10-10--8--8--8--8-|10-10-10-10--8--8--8--8-|10-10-10-10--8--8--8--8-|
D|10-10-10-10--8--8--8--8-|10-10-10-10--8--8--8--8-|10-10-10-10--8--8--8--8-|10-10-10-10--8--8--8--8-|
A|-8--8--8--8--6--6--6--6-|-8-8-8-8--8--6--6--6--6-|-8--8--8--8--6--6--6--6-|-8--8--8--8--6--6--6--6-|
E|------------------------|------------------------|------------------------|------------------------|
  F            Eb          F            Eb          F            Eb          F            Eb

e|------------------------|------------------------|------------------------|------------------------|
B|10-10-10-10--8--8--8--8-|10-10-10-10--8--8--8--8-|10-10-10-10--8--8--8--8-|10-10-10-10--8--8--8--8-|
G|10-10-10-10--8--8--8--8-|10-10-10-10--8--8--8--8-|10-10-10-10--8--8--8--8-|10-10-10-10--8--8--8--8-|
D|10-10-10-10--8--8--8--8-|10-10-10-10--8--8--8--8-|10-10-10-10--8--8--8--8-|10-10-10-10--8--8--8--8-|
A|-8--8--8--8--6--6--6--6-|-8-8-8-8--8--6--6--6--6-|-8--8--8--8--6--6--6--6-|-8--8--8--8--6--6--6--6-|
E|------------------------|------------------------|------------------------|------------------------|
  F            Eb          F            Eb          F            Eb          F            Eb

e|------------------------|------------------------|------------------------|------------------------|
B|10-10-10-10--8--8--8--8-|10-10-10-10--8--8--8--8-|10-10-10-10--8--8--8--8-|10-10-10-10--8--8--8--8-|
G|10-10-10-10--8--8--8--8-|10-10-10-10--8--8--8--8-|10-10-10-10--8--8--8--8-|10-10-10-10--8--8--8--8-|
D|10-10-10-10--8--8--8--8-|10-10-10-10--8--8--8--8-|10-10-10-10--8--8--8--8-|10-10-10-10--8--8--8--8-|
A|-8--8--8--8--6--6--6--6-|-8-8-8-8--8--6--6--6--6-|-8--8--8--8--6--6--6--6-|-8--8--8--8--6--6--6--6-|
E|------------------------|------------------------|------------------------|------------------------|
  F            Eb          F            Eb          F            Eb          F            Eb

e|------------------------|------------------------|
B|10-10-10-10--8--8--8--8-|10-10-10-10--8--8--8--8-|
G|10-10-10-10--8--8--8--8-|10-10-10-10--8--8--8--8-|
D|10-10-10-10--8--8--8--8-|10-10-10-10--8--8--8--8-|
A|-8--8--8--8--6--6--6--6-|-8-8-8-8--8--6--6--6--6-|
E|------------------------|------------------------|
  F            Eb          F            Eb          

e|----------------|-----------------|----------------|-----------------|
B|----------------|-----------------|----------------|-----------------|
G|14---------14---|14---------------|14---------14---|14---------------|
D|15---------15---|15---------------|15---------15---|15---------------|
A|15---------15---|15---------------|15---------15---|15---------------|
E|13---------13---|13---------------|13---------13---|13---------------|
  F

[Verse 4]
e|------------------------|------------------------|------------------------|------------------------|
B|------15-15-------15-15-|------15----------------|------15-15-------15-15-|------15----------------|
G|14-14-15-15-14-14-15-15-|14-14-15-14----14-14-14-|14-14-15-15-14-14-15-15-|14-14-15-14----14-14-14-|
D|15-15-15-15-15-15-15-15-|15-15-15-15----15-15-15-|15-15-15-15-15-15-15-15-|15-15-15-15----15-15-15-|
A|15-15-13-13-15-15-13-13-|15-15-13-15----15-15-15-|15-15-13-13-15-15-13-13-|15-15-13-15----15-15-15-|
E|13-13-------13-13-------|13-13----13----13-13-13-|13-13-------13-13-------|13-13----13----13-13-13-|
  F     Bb    F     Bb     F     Bb  F                    Bb    F     Bb     F     Bb  F    

e|------------------------|------------------------|------------------------|------------------------|
B|------------------------|------------------------|------15-15-------15-15-|------15----------------|
G|-9--9--9--9--9--9--9--9-|12-12-12-12-12-12-12-12-|14-14-15-15-14-14-15-15-|14-14-15-15----14-14-14-|
D|10-10-10-10-10-10-10-10-|13-13-13-13-13-13-13-13-|15-15-15-15-15-15-15-15-|15-15-15-15----15-15-15-|
A|10-10-10-10-10-10-10-10-|13-13-13-13-13-13-13-13-|15-15-13-13-15-15-13-13-|15-15-13-13----15-15-15-|
E|-8---8---8---8---8---8--|11-11-11-11-11-11-11-11-|13-13-------13-13-------|13-13------`---13-13-13-|
  C                        D#                       F     Bb    F     Bb     F     Bb  F     

e|------------------------|------------------------|------------------------|------------------------|
B|------15-15-------15-15-|------15----------------|------15-15-------15-15-|------15----------------|
G|14-14-15-15-14-14-15-15-|14-14-15-14----14-14-14-|14-14-15-15-14-14-15-15-|14-14-15-14----14-14-14-|
D|15-15-15-15-15-15-15-15-|15-15-15-15----15-15-15-|15-15-15-15-15-15-15-15-|15-15-15-15----15-15-15-|
A|15-15-13-13-15-15-13-13-|15-15-13-15----15-15-15-|15-15-13-13-15-15-13-13-|15-15-13-15----15-15-15-|
E|13-13-------13-13-------|13-13----13----13-13-13-|13-13-------13-13-------|13-13----13----13-13-13-|
  F     Bb    F     Bb     F     Bb  F                    Bb    F     Bb     F     Bb  F    

e|------------------------|------------------------|------------------------|------------------------|
B|------------------------|------------------------|------15-15-------15-15-|------15----------------|
G|-9--9--9--9--9--9--9--9-|12-12-12-12-12-12-12-12-|14-14-15-15-14-14-15-15-|14-14-15-15----14-14-14-|
D|10-10-10-10-10-10-10-10-|13-13-13-13-13-13-13-13-|15-15-15-15-15-15-15-15-|15-15-15-15----15-15-15-|
A|10-10-10-10-10-10-10-10-|13-13-13-13-13-13-13-13-|15-15-13-13-15-15-13-13-|15-15-13-13----15-15-15-|
E|-8---8---8---8---8---8--|11-11-11-11-11-11-11-11-|13-13-------13-13-------|13-13------`---13-13-13-|
  C                        D#                       F     Bb    F     Bb     F     Bb  F   

[Chorus]
e|------------------------|------------------------|------------------------|------------------------|
B|------------------------|------------------------|------------------------|------------------------|
G|7--------7--7------7----|-9-------9-9------9-----|3-------3--3-------3----|7--------7--7----7------|
D|8--------8--8------8----|10------10-10----10-----|5-------5--5-------5----|8--------8--8----8------|
A|8--------8--8------8----|10------10-10----10-----|5-------5--5-------5----|8--------8--8----8------|
E|6--------6--6------6----|-8-------8--8-----8-----|3-------3--3-------3----|6--------6--6----6------|
  Bb                       C                        Gm                       Bb

e|------------------------|------------------------|------------------------|------------------------|
B|------------------------|------------------------|------------------------|------------------------|
G|7--------7--7------7----|-9-------9-9------9-----|3-------3--3-------3----|-9--9--9--9--9--9--9--9-|
D|8--------8--8------8----|10------10-10----10-----|5-------5--5-------5----|10-10-10-10-10-10-10-10-|
A|8--------8--8------8----|10------10-10----10-----|5-------5--5-------5----|10-10-10-10-10-10-10-10-|
E|6--------6--6------6----|-8-------8--8-----8-----|3-------3--3-------3----|-8--8--8--8--8--8--8--8-|
  Bb                       C                        Gm                       C

e|------------------------|------------------------|------------------------|------------------------|
B|------------------------|------------------------|------------------------|------------------------|
G|-9--9--9--9--9--9--9--9-|-9--9--9--9--9--9--9--9-|-9--9--9--9--9--9--9--9-|-9--9--9--9--9--9--9--9-|
D|10-10-10-10-10-10-10-10-|10-10-10-10-10-10-10-10-|10-10-10-10-10-10-10-10-|10-10-10-10-10-10-10-10-|
A|10-10-10-10-10-10-10-10-|10-10-10-10-10-10-10-10-|10-10-10-10-10-10-10-10-|10-10-10-10-10-10-10-10-|
E|-8--8--8--8--8--8--8--8-|-8--8--8--8--8--8--8--8-|-8--8--8--8--8--8--8--8-|-8--8--8--8--8--8--8--8-|
  C

e|------------------------|------------------------|
B|------------------------|10----------------------|
G|-9--9--9--9--9--9--9--9-|10----------------------|
D|10-10-10-10-10-10-10-10-|10----------------------|
A|10-10-10-10-10-10-10-10-|-8----------------------|
E|-8--8--8--8--8--8--8--8-|------------------------|
                           F            
Submit corrections


        I Need lessons Hard to play? Try these video lessons and learn fast I Need lessons
        
↑ Back to top | Tablatures and chords for acoustic guitar and electric guitar, ukulele, drums are parodies/interpretations of the original songs. You may use it for private study, scholarship, research or language learning purposes only