» » »

Buzzcocks - Harmony In My Head Tabs

Artists:  A B C D E F G H I J K L M N O P Q R S T U V W X Y Z # 

Harmony In My Head Tabs

(ver. 1) Click to play this song!
Buzzcocks
 Rating:
4.4/5 (7 votes)

 Harmony In My Head lessons Tabs too difficult? Try these video lessons and learn fast
 
                [Intro+Verse]
  D5           C5 G5
e|------------------------------------|
B|------------------------------------|
G|-7--7-7-7-7-7-5---------------------|
D|-7--7-7-7-7-7-5-5----------3-5-5/7--|
A|-5--5-5-5-5-5-3-5---5\3/5-----------|
E|----------------3-------------------|

  D5           C5 G5
e|--------------------7---7---7---7---|
B|----------------------5---5---5---5-|
G|------------------------------------|
D|-7--7-7-7-7-7-5-5-------------------|
A|-5--5-5-5-5-5-3-5-------------------|
E|----------------3-------------------|


[Chorus]
  A5      G5      F5      G5
e|------------------------------------|
B|------------------------------------|
G|------------------------------------|
D|7-7-7-7-5-5-5-5-3-3-3-3-5-5-5-5-5---|
A|7-7-7-7-5-5-5-5-3-3-3-3-5-5-5-5-5---|
E|5-5-5-5-3-3-3-5-1-1-1-1-3-3-3-3-3---|            
Submit corrections


        Harmony In My Head lessons Hard to play? Try these video lessons and learn fast Harmony In My Head lessons
        
↑ Back to top | Tablatures and chords for acoustic guitar and electric guitar, ukulele, drums are parodies/interpretations of the original songs. You may use it for private study, scholarship, research or language learning purposes only