» » »

Buzzcocks - Fiction Romance Tabs

Artists:  A B C D E F G H I J K L M N O P Q R S T U V W X Y Z # 

Fiction Romance Tabs

(ver. 1) Click to play this song!
Buzzcocks
 Rating:
4/5 (4 votes)
    Fiction Romance lessons Tabs too difficult? Try these video lessons and learn fast
                
The main riff for the intro and verses is this:

e|---------------------------------------------------------------------------|
B|---------------------------------------------------------------------------|
G|---------------------------------------------------------------------------|
D|-----------3-1-------------------------------------------------------------|
A|---------------------------------------------------------------------------|
E|-1-1-1-1-1-----------------------------------------------------------------|

There is another guitar strumming the chord F on the verses as well. At the end of each 
the chord changes to A.

This is the chorus:
C
Dreams of love and dreams of pain
    A#
And dreams again again again
  A                                      F
A gain which can be yours just by taking hold

This chorus is repeated with the same chords but different words.

Near the end of the song, guitar 1 plays this:

e|---------------------------------------------------------------------------|
B|---------------------------------------------------------------------------|
G|---------------------------------------------------------------------------|
D|--------------------------------0----1----2----3---------------------------|
A|-----------------------0----3-4--------------------------------------------|
E|-1-1-1-1-1-1-1-1-1-4-------------------------------------------------------|

Note: Only play the last three notes the last time you play the riff
            
Submit corrections

↑ Back to top | Tablatures and chords for acoustic guitar and electric guitar, ukulele, drums are parodies/interpretations of the original songs. You may use it for private study, scholarship, research or language learning purposes only