» » »

Butthole Surfers - Bong Song Tabs

Artists:  A B C D E F G H I J K L M N O P Q R S T U V W X Y Z # 

Bong Song Tabs

(ver. 1) Click to play this song!
Butthole Surfers
 Rating:
4/5 (4 votes)

 Bong Song lessons Tabs too difficult? Try these video lessons and learn fast
 
                -------------------------------------------------------------------------------
-------------------------------------------------------------------------------


Tuning: Standard


intro:

E-----------------------------|
B-----------------------------|
G-----------------------------| PLAY THREE TIMES
D-------10---10--------7-7-5--|
A--7--7----7-----5-5-5--------|
E-----------------------------|

E-------------------------------------------------|
B-------------------------------------------------|
G-------------------------------------------------|
D--------------------------10---10-------10-------|
A--7-7-7-7-7-7-7-7-7-7-7-7----7----7-7-7--7--7-7--|
E-------------------------------------------------|

E-----------------------------|
B-----------------------------|
G-----------------------------| PLAY THREE TIMES
D-------10---10--------7-7-5--|
A--7--7----7-----5-5-5--------|
E-----------------------------|

E----------------------------------|
B----------------------------------|
G----------------------------------|
D-------10---10-----10------10-----|
A--7--7----7----7\8----8-10----10--|
E----------------------------------|

vocal part:

E-----------------------------------------------------------------|
B-----------------------------------------------------------------|
G----------\12-12-12-12-11-11-11-11-7-7--7-7-7-7-6-6-7-7-7-7-4-4--|
D--7-7-7-7-\12-12-12-12-11-11-11-11-7-7--7-7-7-7-6-6-7-7-7-7-4-4--|
A--7-7-7-7-\10-10-10-10--9--9--9--9-5-5--5-5-5-5-4-4-5-5-5-5-2-2--|
E--5-5-5-5--------------------------------------------------------|

play 3 times, then:

E-------------------------------------------|
B-------------------------------------------|
G---------------------------------------2b--|
D--7-7-7-7-10-10-10-10-9-9-9-9-----2--------|
A--7-7-7-7-10-10-10-10-9-9-9-9-5-5-2--------|
E--5-5-5-5--8--8--8--8-7-7-7-7-3-3-0--------|

something weird's up w/ that guitar solo.
(the skronky clean one in the right speaker before the organ solo)
i don't think half of those notes actually exist...


-------------------------------------------------
THE BUTTHOLE SURFERS GUITAR/BASS TAB ARCHIVE:
-------------------------------------------------
            
Submit corrections


        Bong Song lessons Hard to play? Try these video lessons and learn fast Bong Song lessons
        
↑ Back to top | Tablatures and chords for acoustic guitar and electric guitar, ukulele, drums are parodies/interpretations of the original songs. You may use it for private study, scholarship, research or language learning purposes only