Home » B » Busta Rhymes »

Busta Rhymes - Pass The Courvoissier Pt. Ii Tabs

Artists:  A B C D E F G H I J K L M N O P Q R S T U V W X Y Z # 

Pass The Courvoissier Pt. Ii Tabs

(ver. 1) Click to play this song!
Busta Rhymes
This is like the most hot ass song of the summer and anyone who didn't watch the VMA's thursday night missed one incredible performance when Busta jump out of the mosh and did this with P. Diddy there were sirens going, a full orchestra, and then Pharell came out too awesome, unbelievable! Here's the guitar part, it kinda brings to mind flamenco spanish type guitar playing.

Intro/Horn Piece (this is the tune of the horns in the beginning)

"Don't this *** make my people wanna JUMP! JUMP!......."

[-------------------------------------------
[-------------------------------------------
[-------5--------5--------5----------5------
[--7~~~~--5-7~~~~--5-7~~~~--5--7~~~~---5---- go from this last note sraight to verse chords
[-------------------------------------------
[-------------------------------------------

Verse Chords (strike these chords hard keeping a constant pace between each strike)

[----------------------------------------------------
[---------------------------------------------------------
[-2--5---------2--5---------2--5---------2--5-------------
[-2--5--5--7---0--5--5--7---2--5--5--7---2--5--5--7-------
[-0--3--5--7---0--3--5--7---0--3--5--7---0--3--5--7-------
[-------3--5---------3--5---------3--5---------3--5-------

Sweet I love that song, hot hot HOTT!!!!! peace I;ve got more to come
            
Submit corrections

↑ Back to top | Tablatures and chords for acoustic guitar and electric guitar, ukulele, drums are parodies/interpretations of the original songs. You may use it for private study, scholarship, research or language learning purposes only