Home » B » Burt Bacharach »

Burt Bacharach - The Via Veneto Tabs

Artists:  A B C D E F G H I J K L M N O P Q R S T U V W X Y Z # 

The Via Veneto Tabs

(ver. 1) Click to play this song!
Burt Bacharach
[Intro]
e|--10-6-9-7----------------------------5---------9-7------------------------|
B|-7---------7---10-8-8-----7-5-----------8-7-6-7----7-----------------------|
G|-------------7----------------7-5-6----------------------------------------|
D|---------------------------------------------------------------------------|
A|---------------------------------------------------------------------------|
E|---------------------------------------------------------------------------|
 
e|--10-6-9-7----------------------------5-------0-2-0------------------------|
B|-7---------7---10-8-8-----7-5-----------8-----------3-2-0------------------|
G|-------------7----------------7-5-6----------------------------------------|
D|---------------------------------------------------------------------------|
A|---------------------------------------------------------------------------|
E|---------------------------------------------------------------------------|
 
[Verse]
e|---------------------------------------------------------------------------|
B|-\12-12-12----12-------12---------\12-12-12----12-------19-17-15-14-\12-10~|
G|-----------14----14-12----11-11-------------14----14-12--------------------|
D|---------------------------------------------------------------------------|
A|---------------------------------------------------------------------------|
E|---------------------------------------------------------------------------|
 
e|---------------------------------------------------------------------------|
B|-\12-12-12----12-------12--------------------------------------------------|
G|-----------14----14-12----11-11---\12-12-12----12-------11-12-14~~---------|
D|--------------------------------------------14----14-12--------------------|
A|---------------------------------------------------------------------------|
E|---------------------------------------------------------------------------|
 
e|---------------------------------------------------------------------------|
B|-14-15-17-15-14-17-16------------------------------------------------------|
G|---------------------------------------------------------------------------|
D|---------------------------------------------------------------------------|
A|---------------------------------------------------------------------------|
E|---------------------------------------------------------------------------|
 
[Outro]
e|--10-6-9-7----------------------------5-------0-2-0------------0-2-0-------|
B|-7---------7---10-8-8-----7-5-----------8-----------3-2-0------------3-2-0-|
G|-------------7----------------7-5-6----------------------------------------|
D|---------------------------------------------------------------------------|
A|---------------------------------------------------------------------------|
E|---------------------------------------------------------------------------|
            
Submit corrections

↑ Back to top | Tablatures and chords for acoustic guitar and electric guitar, ukulele, drums are parodies/interpretations of the original songs. You may use it for private study, scholarship, research or language learning purposes only