» » »

Built To Spill - You Are Tabs

Artists:  A B C D E F G H I J K L M N O P Q R S T U V W X Y Z # 

You Are Tabs

(ver. 1) Click to play this song!
Built To Spill
 Rating:
4.4/5 (11 votes)

 You Are  lessons Tabs too difficult? Try these video lessons and learn fast
 
                Listen to the song for timing

e|-------------------------------------------------|
B|-------------------------------------------------|
G|-------------------------------------------------|
D|----4~----4~----4~----4~----5~----5~----5~----5~-|       X2
A|-2-----2-----2-----2-----3-----3-----3-----3-----|
E|-------------------------------------------------|

e|--------------------------------|
B|---2-----2-----2---2-----2-----2|       (Or any variation of that you want)
G|-----3-----3---------4-----4----|     
D|-4-----4-----4---4-----4-----4--|       (Repeat until drop)
A|--------------------------------|
E|--------------------------------|

e|----------------------------------------------------------------------|
B|----------------------------------------------------------------------|
G|-12\11--12\11------------12\11--12\11---------------------------------|
D|---------------12\10--9----------------12\10--9-----------------10/14-|      X2
A|-------------------------------------------------12--12/14--10--------|
E|----------------------------------------------------------------------|

e|-----------------------------------------------------------------------------|
B|-12\11--12\11--12\11-----12\11--12\11--15\12---------------------------------|
G|----------------------12----------------------12------9--12--9------9--12--9-|
D|--------------------------------------------------10------------10-----------|     X2
A|-----------------------------------------------------------------------------|
E|-----------------------------------------------------------------------------|

e|---------------------------------------------------------------------------------|
B|---------------------------------------------------------------------------------|
G|-12/14\12/14/16--19\16--16--12/14--16--19\16--16--12------9--12--9------9--12--9-|
D|------------------------------------------------------10------------10-----------|     X2
A|---------------------------------------------------------------------------------|
E|---------------------------------------------------------------------------------|

e|-15\14--12/14--10/11--7--15\14--12/14--10/11--7--8--8/12--10-|
B|-------------------------------------------------------------|
G|-------------------------------------------------------------|
D|-------------------------------------------------------------|     X2
A|-------------------------------------------------------------|
E|-------------------------------------------------------------|

e|-10\7--7/8\7/8\7\3\0--0/10--8--7--7/8\7/10--7/8\7/8\7\3\0--0/10--8--7-|
B|----------------------------------------------------------------------|
G|----------------------------------------------------------------------|
D|----------------------------------------------------------------------|
A|----------------------------------------------------------------------|
E|----------------------------------------------------------------------|            
Submit corrections


        You Are  lessons Hard to play? Try these video lessons and learn fast You Are  lessons
        
↑ Back to top | Tablatures and chords for acoustic guitar and electric guitar, ukulele, drums are parodies/interpretations of the original songs. You may use it for private study, scholarship, research or language learning purposes only