» » »

Built To Spill - Velvet Waltz Tabs

Artists:  A B C D E F G H I J K L M N O P Q R S T U V W X Y Z # 

Velvet Waltz Tabs

(ver. 1) Click to play this song!
Built To Spill
 Rating:
4.3/5 (6 votes)

 Velvet Waltz lessons Tabs too difficult? Try these video lessons and learn fast
 
                [Intro]
e|-------------------------------------------------------------------|
B|---------10--------------------------------------------------------|
G|------12----12--------12-----0-----0-----0-----0-----0-----0-----0-|
D|----9----------9----9------4—----5-----5-----5-----5-----5-----5---|
A|-10--------------10------2-----3-----3-----3-----3-----------0-----|
E|-------------------------------------------------------3-----------|

e|-------------------------------------------------------------------|
B|-------------------------------------------------------------------|
e|-----0-----0-----0-----0-----0-----0—----7-----7-----0-----0-------|
B|---4-----4-----5-----5-----5-----5-----7--—--7-----5-----5---------|
G|-0-----2-----3-----3-----3-----3-----5-----5-----3-----3-----------|
D|-------------------------------------------------------------------|

Repeat x 3

[Verse]

MAIN

If there's a word for you

   D*                   C
It doesn't mean anything

     G                  C
I've got some words for you

D*               C
They don't offer anything

    G                C
You cold called everybody

        D*             C
But you haven't sold a thing

  G             C
A bad idea gone funny

  G     Am   Em        B5  C
A pinch felt in a dream

F              D5             C5                   Bb5
You thought of everything but some things can't be thought

F              D5             C5               Bb5           Am
You thought of everything but one thing you forgot is you're wrong

e|------------------------------------------------------------------------|
B|------------------------------------------------------------------------|
G|----------------------------------------9---------12------9---------12--|
D|----9---------12------9---------12---10---10-10/14--14-10---10-10/14--14|
A|-10---10-10/14--14-10—--10-10/14--14------------------------------------|
E|------------------------------------------------------------------------|

e|------------------------------------------------------------------------|
B|------------------------------------------------------------------------|
G|---11--------14-----11--------14------9---------12------9---------12----|
D|-12--12-12/16--16-12--12-12/16--16-10---10-10/14--14-10---10-10/14--14--|
A|------------------------------------------------------------------------|
E|------------------------------------------------------------------------|

G                     C*
And you better not be angry

        D*            C*
And you better not be sad

    G                     C*
You better just enjoy the luxury of sympathy

D*                     C*
If that's a luxury you have

        G               C*
And you know no private bad

    D*                                     C*
You know that that's the meaning of you're done

     G                   C*
In a world that's not so bad

     D*                            C
In a world time was killing in the sun

     G                   C
In a world that's not so bad

     D5    Db5      B5    Am       Em   B5  C5
In a world time was killing in the sun

       Em   B5   C5
In the sun

       Em   B5   C*
In the sun

         Em
You took all that moment

        G
And you left it in the sun

         Am                              C
Now it's gone because you left it in the sun

      Em
Was a brave idea

G
Didn't mean no harm

         Am                               C
Now it's burnt because you left it in the sun

      Em
Was a grave mistake

    G
But how could you have known

    Am                               C
The temperature, the distance of the sun

[Outro}

Em      G*      Em      G*

G       G*      G       G*

Am      G*      Am      G*

C       G*/C            x2

            
Submit corrections


        Velvet Waltz lessons Hard to play? Try these video lessons and learn fast Velvet Waltz lessons
        
↑ Back to top | Tablatures and chords for acoustic guitar and electric guitar, ukulele, drums are parodies/interpretations of the original songs. You may use it for private study, scholarship, research or language learning purposes only