» » »

Built To Spill - Twin Falls Tabs

Artists:  A B C D E F G H I J K L M N O P Q R S T U V W X Y Z # 

Twin Falls Tabs

(ver. 1) Click to play this song!
Built To Spill
 Rating:
4.3/5 (12 votes)

 Twin Falls lessons Tabs too difficult? Try these video lessons and learn fast
 
                      Dmaj9           C#min           F#min7              E7        E6
e||---------0---------------4--4--------------12--9-------------10--9------|
B||-------7----7------------5----5---------10-------10----------9-----9----|
G||-------6------6--------6--------6-------9-----------11-----9---------9--|
D||-----7----------7----6---------------11------------------9--------------|
A||---5---------------4---------------9-------------------7----------------|
E||------------------------------------------------------------------------|

      Dmaj9           C#min            Dmaj9           Dmin
e|---------0---------------4--4-------------0---------------5-------------||
B|-------7----7------------5----5---------7----7------------6--6----------||
G|-------6------6--------6--------6-------6------6--------7------7--------||
D|-----7----------7----6----------------7----------7----7----------7------||
A|---5---------------4----------------5---------------5-------------------||
E|------------------------------------------------------------------------||

From around 0:52 onwards there is a  typical Built to Spill octave-based melody.
This is repeated over the chord progression for the rest of the song.

     Dmaj9             C#min
e||-------------------------------------------|
B||-------------------------------------------|
G||-------------------------------------------|
D||--7-7-7-7-12-12-11---6-6-6-6-6-6-6-6-------|
A||-------------------------------------------|
E||--5-5-5-5-10-10-9----4-4-4-4-4-4-4-4-------|

    F#min7                  E7         E6
e|-------------------------------------------|
B|-------------------------------------------|
G|-------------------------------------------|
D|--11-11-11-11-11-11-11-11-9-9-9-9-9-9-9-9--|
A|-------------------------------------------|
E|--9--9--9--9--9--9--9--9--7-7-7-7-7-7-7-7--|

    Dmaj9               C#min
e||-------------------------------------------|
B||-------------------------------------------|
G||-------------------------------------------|
D||--7-7-7-7-12-12-11---6-6-6-6-6-6-6-6-------|
A||-------------------------------------------|
E||--5-5-5-5-10-10-9----4-4-4-4-4-4-4-4-------|

    Dmaj9           Dmin
e|-----------------------------------||
B|-----------------------------------||
G|-----------------------------------||
D|--4-4-4-4-4-4-4-4-3-3-3-3-3-3-3-3--||
A|-----------------------------------||
E|--2-2-2-2-2-2-2-2-1-1-1-1-1-1-1-1--||


The ending progression at 1:41 are just fifth chords:


     F#5                 G#5 A5                B5
e||------------------------------------------------|
B||------------------------------------------------|
G||------------------------------------------------|
D||--4--4--4--4--4--4--4--6--7--7--7--7--7--7--9/--|
A||--4--4--4--4--4--4--4--6--7--7--7--7--7--7--9/--|
E||--2--2--2--2--2--0--2--4--5--5--5--5--5--5--7/--|

    F#5                 G#5 A5
e|-------------------------------------------||
B|-------------------------------------------||
G|-------------------------------------------||
D|--4--4--4--4--4--4--4--6--7----------------||
A|--4--4--4--4--4--4--4--6--7----------------||
E|--2--2--2--2--2--0--2--4--5----------------||            
Submit corrections


        Twin Falls lessons Hard to play? Try these video lessons and learn fast Twin Falls lessons
        
↑ Back to top | Tablatures and chords for acoustic guitar and electric guitar, ukulele, drums are parodies/interpretations of the original songs. You may use it for private study, scholarship, research or language learning purposes only