» » »

Built To Spill - Some Tabs

Artists:  A B C D E F G H I J K L M N O P Q R S T U V W X Y Z # 

Some Tabs

(ver. 1) Click to play this song!
Built To Spill
 Rating:
4/5 (4 votes)

 Some lessons Tabs too difficult? Try these video lessons and learn fast
 
                ---------------------------------------------------------------------------
--------------------------------------------------------------------------

Tuning: Standard


FIRST SOLO
*Play with lots of legato (vibratos, slides, bends)
  A            E              F#m           D
e|------------|-------------|--------------|-----------|
B|------------|-7~~~~-------|--------------|-----------|
G|----6-7-9---|-------9~~~~-|--------------|-----------|
D|-7--------9-|-------------|-7~~~~--------|-----------|
A|-0----------|-------------|------4-/5-/4-|/7~~~~--5--|
E|------------|-------------|--------------|-----------|

  A            E              F#m           D
e|------------|-------------|--------------|------------|
B|------------|-------------|--------------|------------|
G|------------|-------------|--------------|------------|
D|------------|-------------|--------------|------------|
A|-4~~~~~~~~--|-(4)~~~~-----|------4-/2-/0-|-~~-5-/-7~~-|
E|------------|-------------|--------------|------------|

  A            E              F#m           D
e|------------|-------------|--------------|------------|
B|------------|-------------|--------------|------------|
G|------------|-------------|--------------|------------|
D|------------|--------7-9--|(b)11-(r)9-7~-|-~-6-h7~~---|
A|-5~~~/9~~~~-|-7~~~~-------|--------------|------------|
E|------------|-------------|--------------|------------|

  A            E              F#m           D
e|------------|-------------|--------------|--------------|
B|------------|-7---7/9~~~~-|-9h7----------|--------------|
G|----6-7-9---|---9---------|----9h6-------|--------------|
D|-7--------9-|-------------|-------7~~~---|-7h9-9-9-7~~~-|
A|-0----------|-------------|--------------|--------------|
E|------------|-------------|--------------|--------------|


VERSE 1: (follow these chords)
A                           E
Some people think he's good looking
F#m                     D
Other people think he's not
A                      E
Some people don't even know his name
F#m                     D
Other people know it by heart
A                                E
Some people think he likes to go out dancing
F#m          D
Other people not
A                          E
One guy I know thinks he's hard to get along with.


CHORUS 1: (play twice)
e|-------|----------------------------|
B|-------|----------------------------|
G|-------|---------------7-7--7-------|
D|-------|-4-4--4-7-7--7-7-7--7-2--2--|
A|-------|-4-4--4-7-7--7-5-5--5-2--2--|
E|-0--1--|-2-2--2-5-5--5--------0--0--|

POST-CHORUS:
e|---------------------------------|
B|---------------------------------|
G|---------------------------------|
D|---------------------------------|
A|-4-4-4-4-4-2-4-6-7----7-7---9/---|
E|-2-2-2-2-2-0-2-4-5----5-5---7/---|






SECOND SOLO:

  A            E         F#m       D
e|------------|---------|---------|-----------|
B|------------|---------|---------|-----------|
G|------------|---------|---------|-----------|
D|------------|---------|---------|-----7-----|
A|-0~~~~/7~~~~|----/7~~~|-/4~~~---|-4/5-------|
E|------------|---------|---------|-----------|

  A           E            F#m         D
e|-----------|------------|-----------|-------------|
B|-----------|------------|-----------|-------------|
G|-----------|------------|-----------|-------------|
D|-----------|------------|-7~~~~--/9-|-7---/11~~~~-|
A|-0----9~~~~|--5---9/7~~-|-----------|-------------|
E|-----------|------------|-----------|-------------|

  A            E           F#m           D
e|------------|-----------|------------|-----------|
B|------------|-10~~~-----|------------|-----------|
G|---7/9~~--7-|------9~~~~|------------|-----------|
D|-7----------|-----------|-7~~~-------|---7~~~~---|
A|------------|-----------|------4~~~~-|-5---------|
E|------------|-----------|------------|-----------|


  A            E              F#m           D
e|------------|-------------|--------------|-----------|
B|------------|-7---7/9~~~~-|-7h9--7h9--7h9|-~~~~~~~---|
G|----6-7-9---|---9---------|--------------|-----------|
D|-7--------9-|-------------|--------------|-----------|
A|-0----------|-------------|--------------|-----------|
E|------------|-------------|--------------|-----------|



VERSE 2:
A                     E
Some people say she's funny
F#m                    D
Other people say she's dumb
A                     E
Some people say she's stuck-up
F#m              D
Others say she's shy
A
Some people like her for her charm
E
Some people take her for granted


Then, repeat CHORUS and POST-CHORUS



Going to have to come back for the THIRD SOLO, but it's over the same chords, just play 
around with the notes from the first solo, it just turns into one big mess at the end haha
            
Submit corrections


        Some lessons Hard to play? Try these video lessons and learn fast Some lessons
        
↑ Back to top | Tablatures and chords for acoustic guitar and electric guitar, ukulele, drums are parodies/interpretations of the original songs. You may use it for private study, scholarship, research or language learning purposes only