» » »

Built To Spill - Shameful Dread Tabs

Artists:  A B C D E F G H I J K L M N O P Q R S T U V W X Y Z # 

Shameful Dread Tabs

(ver. 1) Click to play this song!
Built To Spill
 Rating:
3.7/5 (22 votes)

 Shameful Dread  lessons Tabs too difficult? Try these video lessons and learn fast
 
                Tuning: Standard

Chords are E A F# A Do this 4 times and then its this

e|---------------------------------------------------------------------------|
B|1----1----1--1--x--x----------------1----1----1--1--x--x-------------------|
G|------------------------1-----------------------------------1--------------|
D|2----2----2--2--x--x----2-----------2----2----2--2--x--x----2--------------|
A|3----3----3--3--x--x----2-----------3----3----3--3--x--x----2--------------|
E|---------------------------------------------------------------------------|

e|------------0---------------4----------------------------------------------|
B|----0-----2---2-----2-----6---6-----2-----4-------2-2---2------------------|
G|--1---1-----------3---3-6---------------4---4---2-----2---2----------------|
D|--------2-------4-----------------4--4-4------2----------------------------|
A|2-------------------------------4------------------------------------------|
E|---------------------------------------------------------------------------|

e|12-9----------------------------------------12-12-------12-12-------12-12-------9-11|
B|-----12-9------9-10-10-9-10-12-10-9---12-12-------11-11-------10-10-------10-12-----|
G|----------9-11----------------------9-----------------------------------------------| X3
D|------------------------------------------------------------------------------------|
A|------------------------------------------------------------------------------------|
E|------------------------------------------------------------------------------------|

e|12-9-----------------------------------------------------------------------|
B|-----9-12-10---9-10-9--------------9---------------------------------------|
G|-------------9--------9-------9--9-----------------------------------------| (X4 for lead or X2 for rhythm)
D|------------------------2--------------------------------------------------| (rhythm plays starting chords)
A|---------------------------------------------------------------------------|
E|---------------------------------------------------------------------------|
REST COMING SOON            
Submit corrections


        Shameful Dread  lessons Hard to play? Try these video lessons and learn fast Shameful Dread  lessons
        
↑ Back to top | Tablatures and chords for acoustic guitar and electric guitar, ukulele, drums are parodies/interpretations of the original songs. You may use it for private study, scholarship, research or language learning purposes only